PrimaNota.ru - самый крупный в мире бесплатный архив песенных текстов, аккордов, табулатур и нот


Soja - Did You - таба, видео

Регистрация Запомнить меня
Войти через:  Facebook Google Twitter Vk Yandex Mail.ru

Soja - Did You - таба, видео

Печатать
Просмотров: 154
-------------------------------------------------------------------------------
                             Did You Ever - SOJA
-------------------------------------------------------------------------------
Tabbed by:Chase

Standard Tuning:EADGBE

I have tabbed this song because I saw that no one else had attempted it.  The strumming 
pattern is pretty self explanatory, but is shown below.
Guitar 1 Chords

      G minor      F      C minor

e|-------3---------1---------3------------------------------------|
B|-------3---------1---------4------------------------------------|
G|-------3---------2---------5------------------------------------|
D|-------5---------3---------5------------------------------------|
A|-------5---------3---------3------------------------------------|
E|-------3---------1---------x------------------------------------|

Strumming pattern:

Gm Gm F F Gm Gm F F Gm Gm F F Cm Cm F F


Guitar 2 (trumpet)

e|------------------------------|--------------------------------|
B|------------------------------|--------------------------------|
G|----------8---7-5-7-5---------|--------------7-------------7---|
D|--5-8-7-5-------------8-7-8-5-|-(x3)-5-8-7-5---5---5-8-7-5---5-|
A|------------------------------|--------------------------------|
E|------------------------------|--------------------------------|



************************************

| /   slide up
| \   slide down
| h   hammer-on
| p   pull-off
| ~   vibrato
| +   harmonic
| x   Mute note
| b   Bend
| pb  Pre-bend
| br  Bend release
| pbr Pre-bend release
| brb Bend release bend

************************************
Добавлено: 07.10.2013
Другие материалы по этой песне:
  • Аккорды и текст

Страница создана 07.10.2013
http://primanota.ru/soja/did-you-chords.htm
Привет, Гость.
Предлагаем пройти революционный курс по гитаре.
Подарок от PrimaNota.Ru, забирай!