PrimaNota.ru - самый крупный в мире бесплатный архив песенных текстов, аккордов, табулатур и нот


Soja - 911 - бас-таба, видео

Регистрация Запомнить меня
Войти через:  Facebook Google Twitter Vk Yandex Mail.ru

Soja - 911 - бас-таба, видео

Печатать
Просмотров: 63
Уроки эстрадного вокала в Санкт-Петербурге
-------------------------------------------------------------------------------
                             911 - SOJA
-------------------------------------------------------------------------------
Tabbed by: Paulo Augusto
E-mail: paulo-augusto992@hotmail.com

Tuning:E A D G

Thats the main riff that keeps going on. It's one of my firsts tabs, so any mistake please e-mail me.

911 for u guys:

G|---------------------------------------------------------------------------|
D|---------------------------------------------------------------------------|
A|---5-5-3-0----0-3-5-5-3-5----0-3-5-5-3-0---5-5-0---3-0-0-0-----------------|
E|---------------------------------------------------------------------------|

G|---------------------"IT'S 911"--------------------------------------------|
D|---------------------------------------------------------------------------|
A|---5-5-3-0----0-3-5-5-3-5----0-3-7~--3-5--3-0------------------------------|
E|---------------------------------------------------------------------------|

G|---------------------------------------------------------------------------|
D|---------------------------------------------------------------------------|
A|---5-5-3-0----0-3-5-5-3-5----0-3-5-5-3-0---5-5-0---3-0-0-0-----------------|
E|---------------------------------------------------------------------------| [A LOTx]

Peace I am crying for...
G|-------------------------------------------------------------------------------|
D|-------------------------------------------------------------------------------|
A|---0-3-5-7-5-3-5-------------0-3-5-7-5-3-0-----------0-3-5-7-5-3-5------0000---|
E|-------------------------------------------------------------------------------|


9-1-1, the gunshot from the gangsta...

NO BASS until chorus...



| /  slide up
| \  slide down
| h  hammer-on
| p  pull-off
| ~  vibrato
| +  harmonic
| x  Mute note
===============================================================================
Добавлено: 10.07.2015
Другие материалы по этой песне:
  • Аккорды и текст

Страница создана 10.07.2015
http://primanota.ru/soja/911-chords.htm
Привет, Гость.
Предлагаем пройти революционный курс по гитаре.
Подарок от PrimaNota.Ru, забирай!