PrimaNota.ru - самый крупный в мире бесплатный архив песенных текстов, аккордов, табулатур и нот


Soilwork - I Vermin - текст песни, таба, видео

Регистрация Запомнить меня
Войти через:  Facebook Google Twitter Vk Yandex Mail.ru

Soilwork - I Vermin - текст песни, таба, видео

Печатать
Просмотров: 123
[I, Vermin]
[Soilwork]
[Sworn To A Great Divide]

As Requested By: shadow900

Tuning: B E A D Gb B (2.5 Steps Down From Standard)
joshuaoliveira@hotmail.com

[Riff 1, Guitar 1 & 2] - [00:00] - [00:08]
- --------------------------------------------------------------------------------------------------
- --------------------------------------------------------------------------------------------------
- --------------------------------------------------------------------------------------------------
- -2~-------5~-------2~----------------------------2~-------5~--------------------------------------
- -0~-------3~-------0~----------------------------0~-------3~----------------2~--------------------
- ----------------------------------------------------------------------------0~--------------------
-
- ----------------------------12-12-12-12-12-12-12--------------------------------------------------
- -10-10-10-12-12-12-13-13-13-x--x--x--x--x--x--x--10-10-10-12-12-12-13-13-13-----------------------
- -x--x--x--x--x--x--x--x--x--9--9--9--9--9--9--9--x--x--x--x--x--x--x--x--x--10-10-10-10-9--9--9---
- -7--7--7--9--9--9--10-10-10----------------------7--7--7--9--9--9--10-10-10-x--x--x--x--x--x--x---
- ----------------------------------------------------------------------------8--8--8--8--7--7--7---
- --------------------------------------------------------------------------------------------------


[Riff 2] - [00:08] - [00:35] - [x4]
- ------------------------------------------------------------------
- ------------------------------------------------------------------
- ------------------------------------------------------------------
- -2-2-2-------2-2-2---------------2-2-2-------2-2-2----------------
- -0-0-0-5-5-5-0-0-0-5-5-5-5-------0-0-0-5-5-5-0-0-0-5-5-5-5-2-2-2--
- -------3-3-3-------3-3-3-3-0-0-1-------3-3-3-------3-3-3-3-0-0-0--
PM                                                           .....

[Riff 3, Guitar 1 & 2] - [00:21] - [00:35]
- ----------------------------12-12-12-12-12-12-12--------------------------------------------------
- -10-10-10-12-12-12-13-13-13-x--x--x--x--x--x--x--10-10-10-12-12-12-13-13-13-----------------------
- -x--x--x--x--x--x--x--x--x--9--9--9--9--9--9--9--x--x--x--x--x--x--x--x--x--10-10-10-10-9--9--9---
- -7--7--7--9--9--9--10-10-10----------------------7--7--7--9--9--9--10-10-10-x--x--x--x--x--x--x---
- ----------------------------------------------------------------------------8--8--8--8--7--7--7---
- --------------------------------------------------------------------------------------------------
-
- ----------------------------12-12-12-12-12-12-12--------------------------------------------------
- -10-10-10-12-12-12-13-13-13-x--x--x--x--x--x--x--10-10-10-12-12-12-13-13-13-----------------------
- -x--x--x--x--x--x--x--x--x--9--9--9--9--9--9--9--x--x--x--x--x--x--x--x--x--10-10-10-10-9--9--9---
- -7--7--7--9--9--9--10-10-10----------------------7--7--7--9--9--9--10-10-10-x--x--x--x--x--x--x---
- ----------------------------------------------------------------------------8--8--8--8--7--7--7---
- --------------------------------------------------------------------------------------------------


- ----------------------------12-12-12-12-12-12-12--------------------------------------------------
- -10-10-10-12-12-12-13-13-13-x--x--x--x--x--x--x--10-10-10-12-12-12-13-13-13-----------------------
- -x--x--x--x--x--x--x--x--x--9--9--9--9--9--9--9--x--x--x--x--x--x--x--x--x--10-10-10-10-9--9--9---
- -7--7--7--9--9--9--10-10-10----------------------7--7--7--9--9--9--10-10-10-x--x--x--x--x--x--x---
- ----------------------------------------------------------------------------8--8--8--8--7--7--7---
- --------------------------------------------------------------------------------------------------
-
- ----------------------------17-17-17-17-17-17-17--------------------------------------------------
- -13-13-13-15-15-15-17-17-17-x--x--x--x--x--x--x--13-13-13-15-15-15-17-17-17-----------------------
- -x--x--x--x--x--x--x--x--x--14-14-14-14-14-14-14-x--x--x--x--x--x--x--x--x--17-17-17-17-16-16-16--
- -10-10-10-12-12-12-14-14-14----------------------10-10-10-12-12-12-14-14-14-x--x--x--x--x--x--x---
- ----------------------------------------------------------------------------15-15-15-15-14-14-14--
- --------------------------------------------------------------------------------------------------


[Riff 4, Guitar 1 & 2] - [00:35] - [00:42]
- ----------------------------------------------------------------------------------------------
- ----------------------------------------------------------------------------------------------
- ----------------------------------------------------------------------------------------------
- ----------------------------------------------------------------------------------------------
- -2~--------------------------------------8---8-2~--------------------------------------8-7-5--
- -0~------------------------------------006-006-0~--------------------------------------6-5-3--
PM                                       ..  ..
- ----------------------------------------------------------------------------------------------
- ----------------------------------------------------------------------------------------------
- ----------------------------------------------------------------------------------------------
- ----------------------------------------------------------------------------------------------
- ------7h10----7h10------7h8------7h8-----8---8------7h10----7h10------7h8------7h8-----8-7-5--
- -0000------00------0000-----0000-----00006-006-0000------00------0000-----0000-----00006-5-3--
PM ....      ..      ....     ....     ....  ..  ....      ..      ....     ....     ....


[Riff 5] - [00:42] - [00:55]
- ----------------------------------------------------------------------------------------------
- ----------------------------------------------------------------------------------------------
- ----------------------------------------------------------------------------------------------
- ----------------------------------------------------------------------------------------------
- ------7h10----7h10------7h8------7h8-----8---8------7h10----7h10------7h8------7h8-----8-7-5--
- -0000------00------0000-----0000-----00006-006-0000------00------0000-----0000-----00006-5-3--
PM ....      ..      ....     ....     ....  ..  ....      ..      ....     ....     ....

- ----------------------------------------------------------------------------------------------
- ----------------------------------------------------------------------------------------------
- ----------------------------------------------------------------------------------------------
- ----------------------------------------------------------------------------------------------
- ------7h10----7h10------7h8------7h8-----8---8------7h10----7h10------7h8------7h8---7/8--7-5-
- -0000------00------0000-----0000-----00006-006-0000------00------0000-----0000-----005/6--5-3-
PM ....      ..      ....     ....     ....  ..  ....      ..      ....     ....     ..

[Riff 6a] - [00:55] - [01:08]
- ------------------------------------------------------------------
- ------------------------------------------------------------------
- ------------------------------------------------------------------
- -------5~----------2-5-5-5-2-5-5-------7~----------5-5-5-5-4------
- -2~----3~----2~------------------2~----5~----2~--------------5----
- -0~----------0~------------------0~----------0~-------------------
PM                   ...   .....                     .....

- ------------------------------------------------------------------
- ------------------------------------------------------------------
- ------------------------------------------------------------------
- -------5~----------2-5-5-5-2-5-5-------7~-------------------------
- -2~----3~----2~------------------2~----5~----2~----2-2-2-2-3-3-3--
- -0~----------0~------------------0~----------0~----0-0-0-0-1-1-1--
PM                   ...   .....                     .......

[Riff 6b, Guitar 1 & 2] - [00:55] - [01:02]
- ----7-----------------------------------------------------7--------------------------------------------
- ----------10----8------10---8h10p8---7--8-----------------------10----8-----10---8--7--8--10-8--10/12--
- -9-----9-----9-----9-----------------------9--7--------9-----9-----9-----9-----------------------------
- -------------------------------------------------9--7--------------------------------------------------
- -------------------------------------------------------------------------------------------------------
- -------------------------------------------------------------------------------------------------------
PM .     .     .     .                                   .     .     .     . 
- ----10----------------------------------------------------10-------------------------------------------
- ----------13----12-----13---12h13p12----12----------------------13----12----13---12----12-13-12-13/15--
- -12----12----12----12----------------14----12-11-------12----12----12----12---------14-----------------
- -------------------------------------------------12-10-------------------------------------------------
- -------------------------------------------------------------------------------------------------------
- -------------------------------------------------------------------------------------------------------
PM ..    ..    ..    ..                                  ..    ..    ..    ..


[Riff 2] - [01:08] - [01:22]
[Riff 3] - [01:08] - [01:22]
[Riff 5] - [01:22] - [01:35]

[Riff 7, Guitar 1 & 2] - [01:35] - [01:49]
- ----------------------------------------------------------------------------------------------
- ----------------------------------------------------------------------------------------------
- ----------------------------------------------------------------------------------------------
- ----------------------------------------------------------------------------------------------
- -2222--------------2222------------------8---8-2222--------------2222------------------8-7-5--
- -0000--------------0000----------------006-006-0000--------------0000----------------006-5-3--
PM ........................................  ..  ........................................
-
- ----------------------------------------------------------------------------------------------
- ----------------------------------------------------------------------------------------------
- ----------------------------------------------------------------------------------------------
- ----------------------------------------------------------------------------------------------
- ------7h10----7h10------7h8------7h8-----8---8------7h10----7h10------7h8------7h8-----8-7-5--
- -0000------00------0000-----0000-----00006-006-0000------00------0000-----0000-----00006-5-3--
PM ....      ..      ....     ....     ....  ..  ....      ..      ....     ....     ....


- ----------------------------------------------------------------------------------------------
- ----------------------------------------------------------------------------------------------
- ----------------------------------------------------------------------------------------------
- -------------------------------------------------------------------------------------\\\\\\\\-
- -2222--------------2222------------------8---8-2222--------------22222~--------------\\\\\\\\-
- -0000--------------0000----------------006-006-0000--------------00000~--------------\\\\\\\\-
PM ........................................  ..  ......................
-
- ----------------------------------------------------------------------------------------------
- ----------------------------------------------------------------------------------------------
- ----------------------------------------------------------------------------------------------
- -------------------------------------------------------------------------------------\\\\\\\\-
- ------7h10----7h10------7h8------7h8-----8---8------7h10----7h10-----2~--------------\\\\\\\\-
- -0000------00------0000-----0000-----00006-006-0000------00------00000~--------------\\\\\\\\-
PM ....      ..      ....     ....     ....  ..  ....      ..      ....


[Riff 8a] - [01:49] - [02:16]
- ------------------------------------------------------------------
- ------------------------------------------------------------------
- ------------------------------------------------------------------
- -------5~----------2-5-5-5-2-5-5-------7~----------5-5-5-5-4------
- -2~----3~----2~------------------2~----5~----2~--------------5----
- -0~----------0~------------------0~----------0~-------------------
PM                   ...   .....                     .....

- ------------------------------------------------------------------
- ------------------------------------------------------------------
- ------------------------------------------------------------------
- -------5~----------2-5-5-5-2-5-5-------7~----------5-5-5-5-4------
- -2~----3~----2~------------------2~----5~----2~--------------5----
- -0~----------0~------------------0~----------0~-------------------
PM                   ...   .....                     .....

- ------------------------------------------------------------------
- ------------------------------------------------------------------
- ------------------------------------------------------------------
- -------5~----------2-5-5-5-2-5-5-------7~----------5-5-5-5-4------
- -2~----3~----2~------------------2~----5~----2~--------------5----
- -0~----------0~------------------0~----------0~-------------------
PM                   ...   .....                     .....

- ------------------------------------------------------------------
- ------------------------------------------------------------------
- ------------------------------------------------------------------
- -------5~----------2-5-5-5-2-5-5-------7~-------------------------
- -2~----3~----2~------------------2~----5~----2~----2-2-2-2-3-3-3--
- -0~----------0~------------------0~----------0~----0-0-0-0-1-1-1--
PM                   ...   .....                     .......

[Riff 8b] - [01:49] - [02:16]
- ----7-----------------------------------------------------7--------------------------------------------
- ----------10----8------10---8h10p8---7--8-----------------------10----8-----10---8--7--8--10-8--10/12--
- -9-----9-----9-----9-----------------------9--7--------9-----9-----9-----9-----------------------------
- -------------------------------------------------9--7--------------------------------------------------
- -------------------------------------------------------------------------------------------------------
- -------------------------------------------------------------------------------------------------------
PM .     .     .     .                                   .     .     .     . 
- ----10----------------------------------------------------10-------------------------------------------
- ----------13----12-----13---12h13p12----12----------------------13----12----13---12----12-13-12-13/15--
- -12----12----12----12----------------14----12-11-------12----12----12----12---------14-----------------
- -------------------------------------------------12-10-------------------------------------------------
- -------------------------------------------------------------------------------------------------------
- -------------------------------------------------------------------------------------------------------
PM ..    ..    ..    ..                                  ..    ..    ..    ..


- -------------------------------------------------------------------------------------------------------
- -------------------------------------------------------------------------------------------------------
- -------------------------------------------------------------------------------------------------------
- -------------------------------------------------------------------------------------------------------
- -------------------------------------------------------------------------------------------------------
- -------------------------------------------------------------------------------------------------------
-
- -------------------------------------------------------------------------------------------------------
- -------------------------------------------------------------------------------------------------------
- -------------------------------------------------------------------------------------------------------
- -------------------------------------------------------------------------------------------------------
- -------------------------------------------------------------------------------------------------------
- -------------------------------------------------------------------------------------------------------


- ----7-----------------------------------------------------7--------------------------------------------
- ----------10----8------10---8h10p8---7--8-----------------------10----8-----10---8--7--8--10-8--10/12--
- -9-----9-----9-----9-----------------------9--7--------9-----9-----9-----9-----------------------------
- -------------------------------------------------9--7--------------------------------------------------
- -------------------------------------------------------------------------------------------------------
- -------------------------------------------------------------------------------------------------------
PM .     .     .     .                                   .     .     .     . 
- ----10----------------------------------------------------10-------------------------------------------
- ----------13----12-----13---12h13p12----12----------------------13----12----13---12----12-13-12-13/15--
- -12----12----12----12----------------14----12-11-------12----12----12----12---------14-----------------
- -------------------------------------------------12-10-------------------------------------------------
- -------------------------------------------------------------------------------------------------------
- -------------------------------------------------------------------------------------------------------
PM ..    ..    ..    ..                                  ..    ..    ..    ..


- ----7-----------------------------------------------------7--------------------------------------------
- ----------10----8------10---8h10p8---7--8-----------------------10----8-----10---8--7--8--10-8--10/12--
- -9-----9-----9-----9-----------------------9--7--------9-----9-----9-----9-----------------------------
- -------------------------------------------------9--7--------------------------------------------------
- -------------------------------------------------------------------------------------------------------
- -------------------------------------------------------------------------------------------------------
PM .     .     .     .                                   .     .     .     . 
- ----10----------------------------------------------------10-------------------------------------------
- ----------13----12-----13---12h13p12----12----------------------13----12----13---12----12-13-12-13/15--
- -12----12----12----12----------------14----12-11-------12----12----12----12---------14-----------------
- -------------------------------------------------12-10-------------------------------------------------
- -------------------------------------------------------------------------------------------------------
- -------------------------------------------------------------------------------------------------------
PM ..    ..    ..    ..                                  ..    ..    ..    ..


[Riff 9] - [02:16] - [02:29]
- -----------------------------------------------------------------------
- -----------------------------------------------------------------------
- -------------------------12-12-12-9-------------------------12---12----
- -----8---8-----8---8-----x--x--x--x-----8---8-----8---8-----x----x-----
- -----x---x-----x---x---7-10-10-10-7-----x---x-----x---x-----10---10----
- -00006-006-00006-006-0--------------00006-006-00006-008-0000---00---00-
PM ....  ..  ....  ..  ...            ....  ..  ....  ..  ....   ..   ..

- -----------------------------------------------------------------------
- -----------------------------------------------------------------------
- -------------------------12-12-12-9-------------------------9----9/12--
- -----8---8-----8---8-----x--x--x--x-----8---8-----8---8-----x----x-x---
- -----x---x-----x---x---7-10-10-10-7-----x---x-----x---x-----7----7/10--
- -00006-006-00006-006-0--------------00006-006-00006-008-0000---00------
PM ....  ..  ....  ..  ...            ....  ..  ....  ..  ....   ..

[Riff 10a] - [02:29] - [02:43]
- --------------------------------------------------------------------
- --------------------------------------------------------------------
- --------------------------------------------------------------------
- --------------------------------------------------------------------
- -2222------2222--------------------2222------2222--------2---2-5----
- -0000------0000----------003--003--0000------0000--------0---0-3----
PM ................................................            .

- --------------------------------------------------------------------
- --------------------------------------------------------------------
- --------------------------------------------------------------------
- --------------------------------------------------------------------
- -2222------2222----------/3\--/3\--2222------2222--------2---2-5----
- -0000------0000----------0003-0003-0000------0000--------0---0-3----
PM ................................................            .

[Riff 10b] - [02:28] - [02:46]
- -----------------------------------------------------------------------
- ---------------------------------------------------------5-------3v----
- ----------------------------------[5v]-----[5b]------------4\2---------
- -----------------------[5v]--------------5---------------------5-------
- ---------7v--------5h7--------5h7--------------------------------------
- -21\-------------------------------------------------------------------

- --------------------------------------------------------------------------------------------------------
- ------/ 3 \/ 3 \--/ 3 \/ 3 \-/ 3 \---------------------------------------------------[8\7]--------------
- -----2p0h2p0-----2p0h2p0-----2p0h2-----------------------------7v------7/9-[9v]------------9------------
- -2h5---------2h5---------2h5-------2-------2v------0h2---------------------------------------9\7/9------
- -------------------------------------2p0h2-------------5v-----------------------------------------------
- --------------------------------------------------------------------------------------------------------

- ----------------12-15/17v-----15-----15b-------------------
- ----------12-15--------------------------------------------
- ----12-14--------------------------------------------------
- -14--------------------------------------------------------
- -----------------------------------------------------------
- -----------------------------------------------------------
PM ........

[Riff 1] - [02:43] - [02:49]
[Riff 2] - [02:49] - [03:33]
[Riff 3] - [02:49] - [03:33]
[Riff 8a] - [03:33] - [03:29]
[Riff 8b] - [03:33] - [03:29]

{Riff 11, Guitar 1 & 2] - [03:29] - [03:39]
- ------------------------------------------------
- ------------------------------------------------
- ------------------------------------------------
- ------------------------------------------------
- -2~--------------------------------------8---8--
- -0~------------------------------------006-006--
PM                                       ..  ..
- ------------------------------------------------
- ------------------------------------------------
- ------------------------------------------------
- ------------------------------------------------
- ------7h10----7h10------7h8------7h8-----8---8--
- -0000------00------0000-----0000-----00006-006--
PM ....      ..      ....     ....     ....  ..

[Symbols]

PM... Palm Mute notes with (...) under them
AP... Alternate Pick notes with (...) under them
h     Hammer On
p     Pull Off
[ ]   Harmonic
/     Slide Up
\     Slide Down
x     Dead Note
b     Bend
p     Pre-Bend
r     Release Bend
(x )  Play Notes x amount of times
~     Let Ring
/ 3 \ Notes are triplets (3 notes in the space of two)
w\    Whammy Bar Down
w/    Whammy Bar Up
T     Right Hand Tap
\\\   Pick Slide

:)
Добавлено: 07.09.2015
Вам также может быть интересно:
Другие материалы по этой песне:

Страница создана 21.04.2012
http://primanota.ru/soilwork/i-vermin-chords.htm
Привет, Гость.
Предлагаем пройти революционный курс по гитаре.
Подарок от PrimaNota.Ru, забирай!