PrimaNota.ru - самый крупный в мире бесплатный архив песенных текстов, аккордов, табулатур и нот


Soilwork - Departure Plan - текст песни, таба, бас-таба, видео

Регистрация Запомнить меня
Войти через:  Facebook Google Twitter Vk Yandex Mail.ru

Soilwork - Departure Plan - текст песни, таба, бас-таба, видео

Печатать
Просмотров: 231
Уроки эстрадного вокала в Санкт-Петербурге
Artist: Soilwork
Piece: Departure Plan

Gtr 1 -/(B E A D G B)/-

MAIN
|---------------------------------4-4-4-4-4-4-----4-4-4-4-4-7---7-|
|-5-5-5-5-5-5-----5-5-5-5-5-5---5-4-4-4-4-4-4-----4-4-4-4-4-7---7-|
|-5-5-5-5-5-5-----5-5-5-5-5-5---5-2-2-2-2-2-2-----2-2-2-2-2-5---5-|
|-3-3-3-3-3-3-----3-3-3-3-3-3---3---------------------------------|


|---------------------------------4-4-4-4-4-4-----4-4-4-4-4-2---2-|
|-5-5-5-5-5-5-----5-5-5-5-5-5---5-4-4-4-4-4-4-----4-4-4-4-4-2---2-|
|-5-5-5-5-5-5-----5-5-5-5-5-5---5-2-2-2-2-2-2-----2-2-2-2-2-0---0-|
|-3-3-3-3-3-3-----3-3-3-3-3-3---3---------------------------------|

VERSE
|----------------------------------------14---------------12---------------|
|-10-----------------12------------------12---------------10---------------|
|-12-------------------------------------11---------------9----------------|
|-12-----------------------------------------------------------------------|
|-10-----------------------------------------------------------------------|
|--------------------------------------------------------------------------|


|----------------------------------------------------------------------------|
|-10-----------------12------------------12----------------------------------|
|-12-------------------------------------11----------------------------------|
|-12-------------------------------------9------------------------9----------|
|-10-------------------------------------------------------------------------|
|----------------------------------------------------------------------------|

CHORD VERSE (chord strumming)
|----------------------------------------------------|
|-10-10-10-10-10-----10h12---12-12-12-12-12----12-12-|
|-12-12-12-12-12-----12------12-12-12-12-12----12-12-|
|-12-12-12-12-12-----12------12-12-12-12-12----12-12-|
|-10-10-10-10-10-----10------10-10-10-10-10----10-10-|
|----------------------------------------------------|


|-14-14-14-14-----------12-12-12-12--------12-12-----|
|-12-12-12-12-----------10-10-10-10--------10-10-----|
|-11-11-11-11-----------9--9--9--9---------9--9------|
|----------------------------------------------------|
|----------------------------------------------------|
|----------------------------------------------------|


|----------------------------------------------------|
|-10-10-10-10-10-----10h12---12-12-12-12-12----12-12-|
|-12-12-12-12-12-----12------12-12-12-12-12----12-12-|
|-12-12-12-12-12-----12------12-12-12-12-12----12-12-|
|-10-10-10-10-10-----10------10-10-10-10-10----10-10-|
|----------------------------------------------------|


|----------------------------------------------------|
|-12-12-12-12-12------12-12-12-12-12-----12-12-12----|
|-11-11-11-11-11------11-11-11-11-11-----11-11-11----|
|-9--9--9--9--9-------9--9--9--9--9------9--9--9-----|
|----------------------------------------------------|
|----------------------------------------------------|


MAIN

VERSE


CHORD VERSE 2 (chord strumming)
|----------------------------------------------------|
|-10-10-10-10-10-----10h12---12-12-12-12-12----12-12-|
|-12-12-12-12-12-----12------12-12-12-12-12----12-12-|
|-12-12-12-12-12-----12------12-12-12-12-12----12-12-|
|-10-10-10-10-10-----10------10-10-10-10-10----10-10-|
|----------------------------------------------------|
|
|
|----------------------------------------------------|
|-14-------------------------------------------------|
|-----------14------/16------------------------------|
|----------------------------------------------------|
|----------------------------------------------------|


|-14-14-14-14----------12-12-12-12---------12-12-----|
|-12-12-12-12----------10-10-10-10---------10-10-----|
|-11-11-11-11----------9--9--9--9----------9--9------|
|----------------------------------------------------|
|----------------------------------------------------|
|----------------------------------------------------|
|
|
|----------------------------------------------------|
|-16-------------------------------------------------|
|-----------14-------/16-----------------------------|
|----------------------------------------------------|
|----------------------------------------------------|


|----------------------------------------------------|
|-10-10-10-10-10-----10h12---12-12-12-12-12----12-12-|
|-12-12-12-12-12-----12------12-12-12-12-12----12-12-|
|-12-12-12-12-12-----12------12-12-12-12-12----12-12-|
|-10-10-10-10-10-----10------10-10-10-10-10----10-10-|
|----------------------------------------------------|
|
|
|----------------------------------------------------|
|-14-------------------------------------------------|
|-----------14------/16------------------------------|
|----------------------------------------------------|
|----------------------------------------------------|

|----------------------------------------------------|
|-12-12-12-12-12------12-12-12-12-12-----12-12-12----|
|-11-11-11-11-11------11-11-11-11-11-----11-11-11----|
|-9--9--9--9--9-------9--9--9--9--9------9--9--9-----|
|----------------------------------------------------|
|----------------------------------------------------|
|
|
|----------------------------------------------------|
|----------------------------------------------------|
|-14--------12-------11------------------------------|
|----------------------------------------------------|
|----------------------------------------------------|


MAIN

KEYBOARD INTERLUDE


SOLO
|---------------------------------------------------------------------------|
|---------------------------------------------------------------------------|
|---------------------------/11---------------------------------------------|
|-12/14-12-------------------------9----11-------11h12p119------------------|
|---------------------------------------------------------------------------|
|---------------------------------------------------------------------------|
                                   .

|--------------------------------------------------------------14-10-12-----------------|
|---------------------------------------------------------------------------------------|
|------------------------------------------------------------9--------------------------|
|---/11----h12----/14--------------------------------9-11-12----------------------------|
|---------------------------------------------------------------------------------------|
|---------------------------------------------------------------------------------------|
                                                     . .  .  .

|--------21-22------22p21p19--------------------------------------------------------------|
|-----22---------------------22-----------------------------------------------------------|
|--21---------------------------21---19---18---18-----------18h19p1816----16--14--16--16--|
|-----------------------------------------------------------------------------------------|
|-----------------------------------------------------------------------------------------|
|-----------------------------------------------------------------------------------------|


|-------------------------------------------------------------------------|
|-------------------------------------------------------------------------|
|---------16/18b--r--b--r--b--r--19p18p16-h18-h19-p18-h21-p18-h19-p18-16--|
|-------------------------------------------------------------------------|
|-------------------------------------------------------------------------|
|-------------------------------------------------------------------------|
Добавлено: 23.08.2015
Другие материалы по этой песне:

Страница создана 16.03.2012
http://primanota.ru/soilwork/departure-plan-chords.htm
Привет, Гость.
Предлагаем пройти революционный курс по гитаре.
Подарок от PrimaNota.Ru, забирай!