PrimaNota.ru - самый крупный в мире бесплатный архив песенных текстов, аккордов, табулатур и нот


Soilwork - Brickwalker - текст песни, таба, видео

Регистрация Запомнить меня
Войти через:  Facebook Google Twitter Vk Yandex Mail.ru

Soilwork - Brickwalker - текст песни, таба, видео

Печатать
Просмотров: 203
Artist: Soilwork
Piece: Brickwalker

Tuned Drop B (B F# B E G# C#)
---------------------------------------

--Guitar Riffs--
(listen for rhythm & strumming pattern)

Riff #1

C# -----------------------------------------------------------|
G# -----------------------------------------------------------|
E  -----------------------------------------------------------|
B  ---0-0-0-0-7^10-10-10-3-3-3-3-0-0-0-0-7^10-10-10-3-3-3-3---|
F# ---0-0-0-0-7^10-10-10-3-3-3-3-0-0-0-0-7^10-10-10-3-3-3-3---|
B  ---0-0-0-0-7^10-10-10-3-3-3-3-0-0-0-0-7^10-10-10-3-3-3-3---|

C# -----------------------------------------------------------|
G# -----------------------------------------------------------|
E  -----------------------------------------------------------|
B  ---0-0-0-0-7^10-10-10-3-3-3-3-0-0-0-0-3^5-5-5-3^5-5-X-X----|
F# ---0-0-0-0-7^10-10-10-3-3-3-3-0-0-0-0-3^5-5-5-3^5-5-X-X----|
B  ---0-0-0-0-7^10-10-10-3-3-3-3-0-0-0-0-3^5-5-5-3^5-5-X-X----|

Riff #2

C# -------------------------------------------------------------------------|
G# -------------------------------------------------------------------------|
E  -------------------------------------------------------------------------|
B  --0-0-0--0-0-0-0---0-0-0--0-0-0-0---9-9-9--9-9-9-9---8-8-8--8-8-8-8------|
F# --0-0-0--0-0-0-0---0-0-0--0-0-0-0---9-9-9--9-9-9-9---8-8-8--8-8-8-8------|
B  --0-0-0--0-0-0-0---0-0-0--0-0-0-0---9-9-9--9-9-9-9---8-8-8--8-8-8-8------|

Riff #3

C# -------------------------------------------------------------------------|
G# -------------------------------------------------------------------------|
E  -------------------------------------------------------------------------|
B  --0-0-3--0-0-5--0-0-6--0-0-5--0-0-1--0-0-1--0-0-1--0-0-3^5-5-3^5-5-3^5---|
F# --0-0-3--0-0-5--0-0-6--0-0-5--0-0-1--0-0-1--0-0-1--0-0-3^5-5-3^5-5-3^5---|
B  --0-0-3--0-0-5--0-0-6--0-0-5--0-0-1--0-0-1--0-0-1--0-0-3^5-5-3^5-5-3^5---|

Riff #4

C# -------------------------------------------------------------------------|
G# -------------------------------------------------------------------------|
E  -------------------------------------------------------------------------|
B  -0-0-0-10^12-X-10^12-0-0-0-10^12--0-0-0-10^12-X-10^12-0-0-0-10^12--------|
F# -0-0-0-10^12-X-10^12-0-0-0-10^12--0-0-0-10^12-X-10^12-0-0-0-10^12--------|
B  -0-0-0-10^12-X-10^12-0-0-0-10^12--0-0-0-10^12-X-10^12-0-0-0-10^12--------|

--Order--

Riff #1 x2
Riff #2 x2
Riff #3
Riff #2 x2
Riff #3
Riff #1 x2
Riff #2 x2
Open B Power Cord During Bridge
Riff #1 x2
Riff #4 x2
Solo - (haven't figured out the solo. Rhythm guitar plays mostly Riff #4 and open B 
Power Cords during Solo)
Riff #1 x2
Open B Power Cord During Bridge
Ending - last part of Riff #3 (3^5 hammer on)
Добавлено: 23.08.2015
Другие материалы по этой песне:

Страница создана 19.06.2012
http://primanota.ru/soilwork/brickwalker-chords.htm
Привет, Гость.
Предлагаем пройти революционный курс по гитаре.
Подарок от PrimaNota.Ru, забирай!