PrimaNota.ru - самый крупный в мире бесплатный архив песенных текстов, аккордов, табулатур и нот


Soft Machine - Hazard profile part 4 - таба, видео

Регистрация Запомнить меня
Войти через:  Facebook Google Twitter Vk Yandex Mail.ru

Soft Machine - Hazard profile part 4 - таба, видео

Печатать
Просмотров: 103


Artist: Soft Machine
Title: Hazard Profile part 4
Album: Bundles

E ------------5--3-5---5-----------3-5-------------5--3-5----5-3----------
A ---5--3-5----------3---3p5--3p5------3--5-3--5-3--------3------3--3s5---
D ----------3------------------------------------------------------3------
G ------------------------------------------------------------------------
H ------------------------------------------------------------------------
e ------------------------------------------------------------------------

E ---------------------------------
A ---------------5-3-------5-3-----
D ---6s7-10-5--3-----4s5-3-----5---
G ---------------------------------
H ---------------------------------
e ---------------------------------

p - pull off technic
s - slide technic

It's not the correct version of the tab, but it isn't bad.
If you had a better idea, write to me: periander@citromail.hu


Добавлено: 25.08.2013
Другие материалы по этой песне:
  • Аккорды и текст

Страница создана 25.08.2013
http://primanota.ru/soft-machine/hazard-profile-part-4-chords.htm
Привет, Гость.
Предлагаем пройти революционный курс по гитаре.
Подарок от PrimaNota.Ru, забирай!