PrimaNota.ru - самый крупный в мире бесплатный архив песенных текстов, аккордов, табулатур и нот


Soft Cell - Soul Inside - текст песни, бас-таба, видео

Регистрация Запомнить меня
Войти через:  Facebook Google Twitter Vk Yandex Mail.ru

Soft Cell - Soul Inside - текст песни, бас-таба, видео

Печатать
Просмотров: 103
Tabbed by: bassm99
E-mail: alanmatthews1966@yahoo.co.uk

Tuning: E, A, D, G

"Soul Inside" from the album "This Last Night...In Sodom" (1984)
Written by Almond/Ball

Bass Starts: 0:01

Intro:

G|--------------------------------------------------------------------------|
D|--------------------------------------------------------------------------|
A|--13\-(x1)--1-1-1-1-1-1-1-1-----------------------------------------------|
E|----------------------------1-1-1-1-1-1-1-1-(x6)--------------------------|

Verse: (Play 8 Times)

G|--------------------------------------------------------------------------|
D|--------------------------------------------------------------------------|
A|--1-1-1-1-1-1-1-1---------------------------------------------------------|
E|------------------1-1-1-1-1-1-1-1-----------------------------------------|

Chorus:

G|--------------------------------------------------------------------------|
D|--55555555-33333333-1-1-1-1-1-1-1-1-33333333-(x3)-------------------------|
A|--------------------------------------------------------------------------|
E|--------------------------------------------------33333333-55555555-------|

G|--------------------------------------------------------------------------|
D|--------------------------------------------------------------------------|
A|--------------------55555555-88888888-(x1)--------------------------------|
E|--66666666-88888888-------------------------------------------------------|

Verse: (Play Twice)

G|--------------------------------------------------------------------------|
D|-------------------------------------------------------33333333-(x1)------|
A|--1-1-1-1-1-1-1-1----------------------1-1-1-1-1-1-1-1--------------------|
E|------------------1-1-1-1-1-1-1-1-(x3)------------------------------------|

Chorus:

G|--------------------------------------------------------------------------|
D|--55555555-33333333-1-1-1-1-1-1-1-1-33333333-(x3)-------------------------|
A|--------------------------------------------------------------------------|
E|--------------------------------------------------------------------------|

G|--------------------------------------------------------------------------|
D|--------------------------------------------------------------------------|
A|-----------------------------33333333-(x1)--------------------------------|
E|--33333333-55555555-66666666----------------------------------------------|

G|--------------------------------------------------------------------------|
D|--55555555-33333333-1-1-1-1-1-1-1-1-33333333-(x9)-------------------------|
A|--------------------------------------------------------------------------|
E|--------------------------------------------------------------------------|

G|--------------------------------------------------------------------------|
D|-----------5-3-1----------------------------------------------------------|
A|-----------------3--------------------------------------------------------|
E|--33333333----------------------------------------------------------------|

Bridge: (Play 23 Times)

G|--------------------------------------------------------------------------|
D|--------------------------------------------------------------------------|
A|--1-1-1-1-1-1-1-1---------------------------------------------------------|
E|------------------1-1-1-1-1-1-1-1-----------------------------------------|

End:

G|--------------------------------------------------------------------------|
D|--------------------------------------------------------------------------|
A|--1-----------------------------------------------------------------------|
E|--------------------------------------------------------------------------|
Добавлено: 29.12.2015
Другие материалы по этой песне:
  • Аккорды и текст

Страница создана 28.07.2012
http://primanota.ru/soft-cell/soul-inside-chords.htm
Привет, Гость.
Предлагаем пройти революционный курс по гитаре.
Подарок от PrimaNota.Ru, забирай!