PrimaNota.ru - самый крупный в мире бесплатный архив песенных текстов, аккордов, табулатур и нот


Soft Cell - Secret Life - текст песни, бас-таба, видео

Регистрация Запомнить меня
Войти через:  Facebook Google Twitter Vk Yandex Mail.ru

Soft Cell - Secret Life - текст песни, бас-таба, видео

Печатать
Просмотров: 204
Авторы музыки: Dave Ball
Авторы текста: Marc Almond
Tabbed by: bassm99
E-mail: alanmatthews1966@yahoo.co.uk

Tuning: E, A, D, G

"Secret Life" from the album "Non Stop Erotic Cabaret" (1981)
Written by Marc Almond & Dave Ball

Intro/Verse:

G|--------------------------------------------------------------------------|
D|--------------------------------------------------------------------------|
A|--2-2---------------------------------------------------------------------|
E|-------0--5-5--3--2-------------------------------------------------------|

Chorus:

G|--------------------------------------------------------------------------|
D|-------4-4-------5-5------------------------------------------------------|
A|--2--2---------------------7-7-------5-5----------------------------------|
E|------------3--3------0--0------3--3--------------------------------------|

Bridge: (Play 4 Times)

G|--------------------------------------------------------------------------|
D|--------------------------------------------------------------------------|
A|-------5-5----------------------------------------------------------------|
E|--3--3------0-0-0-0-------------------------------------------------------|

End: (First part play once, Second part repeat to fade) 

G|--------------------------------------------------------------------------|
D|--------------------------------------------------------------------------|
A|--2-2---------------------------------------------------------------------|
E|-------3-3----------------------------------------------------------------|

G|--------------------------------------------------------------------------|
D|--------------------------------------------------------------------------|
A|--2-2---------------------------------------------------------------------|
E|-------3-3--5-------------------------------------------------------------|
Добавлено: 12.07.2013
Другие материалы по этой песне:
  • Аккорды и текст

Страница создана 09.04.2012
http://primanota.ru/soft-cell/secret-life-chords.htm
Привет, Гость.
Предлагаем пройти революционный курс по гитаре.
Подарок от PrimaNota.Ru, забирай!