PrimaNota.ru - самый крупный в мире бесплатный архив песенных текстов, аккордов, табулатур и нот


Soft Cell - Facility Girls - бас-таба, видео

Регистрация Запомнить меня
Войти через:  Facebook Google Twitter Vk Yandex Mail.ru

Soft Cell - Facility Girls - бас-таба, видео

Печатать
Просмотров: 218
Уроки эстрадного вокала в Санкт-Петербурге
Tabbed by: bassm99
E-mail: alanmatthews1966@yahoo.co.uk

"Facility Girls" From the "Bedsitter" Single (1981)

Written by Marc Almond & Dave Ball

Intro/Verse: (Repeat As Required)

G|--------------------------------------------------------------------------|
D|--------------------------------------------------------------------------|
A|-------3----5-------------------------------------------------------------|
E|--3-----------------------------------------------------------------------|

Chorus:

G|--------------------------------------------------------------------------|
D|--------------------------------------------------------------------------|
A|--8----5----8----5--------------------------------------------------------|
E|--------------------------------------------------------------------------|

Pre Ending: 

G|--------------------------------------------------------------------------|
D|--------------------------------------------------------------------------|
A|-------3----5---------3----5---------3----5---------0----3----------------|
E|--3--------------3--------------3--------------3--------------------------|

END: (Repeat Twice)  

G|--------------------------------------------------------------------------|
D|--------------------------------------------------------------------------|
A|-------3----5---------3----0----------------------------------------------|
E|--3--------------3--------------------------------------------------------|

All notes played as single sustained notes.
Добавлено: 09.07.2013
Другие материалы по этой песне:
  • Аккорды и текст

Страница создана 09.07.2013
http://primanota.ru/soft-cell/facility-girls-chords.htm
Привет, Гость.
Предлагаем пройти революционный курс по гитаре.
Подарок от PrimaNota.Ru, забирай!