PrimaNota.ru - самый крупный в мире бесплатный архив песенных текстов, аккордов, табулатур и нот


Soft Cell - Born To Lose - бас-таба, видео

Регистрация Запомнить меня
Войти через:  Facebook Google Twitter Vk Yandex Mail.ru

Soft Cell - Born To Lose - бас-таба, видео

Печатать
Просмотров: 167
Tabbed by: bassm99
E-mail: alanmatthews1966@yahoo.co.uk

"Born To Lose" From the 12" Single "Down In The Subway" (1984)
Written by Thunders

Verse: (Play Twice)

G|--------------------------------------------------------------------------|
D|--------------------------------------------------------------------------|
A|--------------------66666666-66666666-------------------------------------|
E|--66666666-66666666-------------------------------------------------------|

Chorus:

G|--------------------------------------------------------------------------|
D|--------------------------------------------------------------------------|
A|--88888888----------------------9999--------------------------------------|
E|-----------66-88-99-10-10-(x3)-------4444-66666666-(x1)-------------------|

Repeat Verse:

Chorus:

G|--------------------------------------------------------------------------|
D|--------------------------------------------------------------------------|
A|--88888888----------------------9999--------------------------------------|
E|-----------66-88-99-10-10-(x3)-------4444-66666666-(x2)-------------------|

Repeat Verse:

Chorus:

G|--------------------------------------------------------------------------|
D|--------------------------------------------------------------------------|
A|--88888888----------------------9999--------------------------------------|
E|-----------66-88-99-10-10-(x3)-------4444-66666666-(x4)-66666666----------|

Keyboard Solo:

G|--------------------------------------------------------------------------|
D|--------------------------------------------------------------------------|
A|--66666666-66666666-------------------66666666-66666666-------------------|
E|--------------------66666666-66666666-------------------66666666----------|

G|--------------------------------------------------------------------------|
D|--------------------------------------------------------------------------|
A|-----------------66666666-66666666-------------------66666666-66666666----|
E|--66-88-99-10-10-------------------66666666-66666666----------------------|

Chorus:

G|--------------------------------------------------------------------------|
D|--------------------------------------------------------------------------|
A|--88888888----------------------9999--------------------------------------|
E|-----------66-88-99-10-10-(x3)-------4444-66666666-(x2)-------------------|

Chorus:

G|--------------------------------------------------------------------------|
D|--------------------------------------------------------------------------|
A|--88888888----------------------9999--------------------------------------|
E|-----------66-88-99-10-10-(x3)-------4444-66666666-(x4)-6-----------------|
Добавлено: 10.08.2015
Другие материалы по этой песне:
  • Аккорды и текст

Страница создана 10.08.2015
http://primanota.ru/soft-cell/born-to-lose-chords.htm
Привет, Гость.
Предлагаем пройти революционный курс по гитаре.
Подарок от PrimaNota.Ru, забирай!