PrimaNota.ru - самый крупный в мире бесплатный архив песенных текстов, аккордов, табулатур и нот


Soft Boys - There's Nobody Like You - текст песни, таба, видео

Регистрация Запомнить меня
Войти через:  Facebook Google Twitter Vk Yandex Mail.ru

Soft Boys - There's Nobody Like You - текст песни, таба, видео

Печатать
Просмотров: 32
-------------------------------------------------------------------------------
               There's Nobody Like You - The Soft Boys
-------------------------------------------------------------------------------

Tuning: Standard


Verse Riff:
e|---------------------------------------------------------------------------|
B|---------------------------------------------------------------------------|
G|---------------------------------------------------------------------------|
D|----3-2-----3-2-----3-2-----3-2--------------------------------------------|
A|--------3-------3-------3-------3------------------------------------------|
E|--3-------3-------3-------3-------3----------------------------------------|

Pre-Chorus:
e|--3--3--8--8---------------------------------------------------------------|
B|--3--3--8--10--------------------------------------------------------------|
G|--4--3--9--10--------------------------------------------------------------|
D|--5--5--10-10--------------------------------------------------------------|
A|--5--5--10-8---------------------------------------------------------------|
E|--3--3--8--8---------------------------------------------------------------|

Chorus:
e|--3--5--8--8---------------------------------------------------------------|
B|--3--7--8--10--------------------------------------------------------------|
G|--4--7--9--10--------------------------------------------------------------|
D|--5--7--10-10--------------------------------------------------------------| end chorus on an A
A|--5--5--10-8---------------------------------------------------------------|
E|--3--5--8--8---------------------------------------------------------------|





Verse        
e|---------------------------------------------------------------------------|
B|---------------------------------------------------------------------------|
G|---------------------------------------------------------------------------|
D|----3-2-----3-2-----3-2-----3-2--------------------------------------------|
A|--------3-------3-------3-------3------------------------------------------|
E|--3-------3-------3-------3-------3----------------------------------------|
6x

Pre-Chorus
e|--3--3--8--8---------------------------------------------------------------|
B|--3--3--8--10--------------------------------------------------------------|
G|--4--3--9--10--------------------------------------------------------------|
D|--5--5--10-10--------------------------------------------------------------|
A|--5--5--10-8---------------------------------------------------------------|
E|--3--3--8--8---------------------------------------------------------------|
1x

Verse
e|---------------------------------------------------------------------------|
B|---------------------------------------------------------------------------|
G|---------------------------------------------------------------------------|
D|----3-2-----3-2-----3-2-----3-2--------------------------------------------|
A|--------3-------3-------3-------3------------------------------------------|
E|--3-------3-------3-------3-------3----------------------------------------|
5x


Pre-Chorus
e|--3--3--8--8---------------------------------------------------------------|
B|--3--3--8--10--------------------------------------------------------------|
G|--4--3--9--10--------------------------------------------------------------|
D|--5--5--10-10--------------------------------------------------------------|
A|--5--5--10-8---------------------------------------------------------------|
E|--3--3--8--8---------------------------------------------------------------|
1x


Chorus
e|--3--5--8--8---------------------------------------------------------------|
B|--3--7--8--10--------------------------------------------------------------|
G|--4--7--9--10--------------------------------------------------------------|
D|--5--7--10-10--------------------------------------------------------------| end chorus on an A
A|--5--5--10-8---------------------------------------------------------------|
E|--3--5--8--8---------------------------------------------------------------|
3x


Solo


Chorus
e|--3--5--8--8---------------------------------------------------------------|
B|--3--7--8--10--------------------------------------------------------------|
G|--4--7--9--10--------------------------------------------------------------|
D|--5--7--10-10--------------------------------------------------------------| end chorus on an A
A|--5--5--10-8---------------------------------------------------------------|
E|--3--5--8--8---------------------------------------------------------------|
3x


Verse
e|---------------------------------------------------------------------------|
B|---------------------------------------------------------------------------|
G|---------------------------------------------------------------------------|
D|----3-2-----3-2-----3-2-----3-2--------------------------------------------|
A|--------3-------3-------3-------3------------------------------------------|
E|--3-------3-------3-------3-------3----------------------------------------|
5x


Pre-Chorus
e|--3--3--8--8---------------------------------------------------------------|
B|--3--3--8--10--------------------------------------------------------------|
G|--4--3--9--10--------------------------------------------------------------|
D|--5--5--10-10--------------------------------------------------------------|
A|--5--5--10-8---------------------------------------------------------------|
E|--3--3--8--8---------------------------------------------------------------|
1x


Chorus
e|--3--5--8--8---------------------------------------------------------------|
B|--3--7--8--10--------------------------------------------------------------|
G|--4--7--9--10--------------------------------------------------------------|
D|--5--7--10-10--------------------------------------------------------------| end chorus on an A
A|--5--5--10-8---------------------------------------------------------------|
E|--3--5--8--8---------------------------------------------------------------|
3x
Добавлено: 02.01.2016
Вам также может быть интересно:
Другие материалы по этой песне:
  • Аккорды и текст

Страница создана 01.06.2012
http://primanota.ru/soft-boys/theres-nobody-like-you-chords.htm
Привет, Гость.
Предлагаем пройти революционный курс по гитаре.
Подарок от PrimaNota.Ru, забирай!