PrimaNota.ru - самый крупный в мире бесплатный архив песенных текстов, аккордов, табулатур и нот


Soda Stereo - Tele-k - аккорды и текст, бас-таба, видео

Регистрация Запомнить меня
Войти через:  Facebook Google Twitter Vk Yandex Mail.ru

Soda Stereo - Tele-k - аккорды и текст, бас-таба, видео

Печатать
Просмотров: 113
Tele-k
Soda Stereo
Banda: Soda Stereo
Cancion: Tele-K
Transcrito por:Carlos Ramirez
Afinacion:EADGBe

INTRO Y VERSO:

   B   Ebm Abm    F#        E         G           C           F#    Em
e|-7----6---4-----6---------7---------7-----------8-----------9---|--7----|
B|-7----7---4-----7---------9---------8-----------8-----------11--|--8----|
G|-8----8---4-----6---------9---------7-----------9-----------11--|--9----|
D|-9----8---6-----8---------9---------9-----------10----------11--|--9----|
A|-9----6---6-----9---------7---------10----------10----------9---|--7----|
E|-7----x---4-----x---------x---------x-----------8-----------x---|--x----|
     dejalo ser dejalo sacudirse bien    (no hay trampa en esto)
   ya vas a ver como tu cuerpo se abre    (no esperes mas de        mi)

  CORO:
        Bm           A          Bm            A
e|-------7-----------5-----------7------------5--------|
B|-------7-----------5-----------7------------5--------|
G|-------7-----------6-----------7------------6--------|
D|-------9-----------7-----------9------------7--------| (repetir)
A|-------9-----------7-----------9------------7--------|
E|-------7-----------5-----------7------------5--------|
         tele telekinesis        moveras tus pies


  verso, coro


   C  F#    Bm      D     C   F#       Bm      D      C
e|-8--6------7-----10-----8---6---------7-----10------8-------------|
B|-8--7------7-----10-----8---7---------7-----10------8-------------|
G|-9--6------7-----11-----9---6---------7-----11------9-------------|
D|-10-8------9-----12-----10--8---------9-----12------10------------|
A|-10-9------9-----12-----10--9---------9-----12------10------------|
E|-8--x------7-----10-----8---x---------7-----10------8-------------|
        no esperes mas de mi      no esperes mas de mi

      F#    Bm      D     C    F#    G
e|----6------7-----10-----8----6-----7-------------|
B|----7------7-----10-----8----7-----8-------------|
G|----6------7-----11-----9--- 6-----7-------------|
D|----8------9-----12-----10---8-----9-------------|
A|----9------9-----12-----10---9-----10------------|
E|----x------7-----10-----8----x-----x-------------|
        no esperes mas de mi     de mi

   verso,coro...


FINAL:

  Bm G7M   A                Bm   G7M      A
e|-7---7---5----|    --------7-----7-----5-----------|
B|-7---7---5----|    --------7-----7-----5-----------|
G|-7---7---6----|(2) --------7-----7-----6-----------| (repetir
D|-9---9---7----|    --------9-----9-----7-----------|  varias veces)
A|-9---10--7----|    --------9-----10----7-----------|
E|-7---x---5----|    --------7-----x-----5-----------|
                       no esperes mas de mi

        Bm      A         G     A     B
e|-------7------5---------3-----5-----7----------------|
B|-------7------5---------3-----5-----7----------------|
G|-------7------6---------4-----6-----8----------------|
D|-------9------7---------5-----7-----9----------------|
A|-------9------7---------5-----7-----9----------------|
E|-------7------7---------3-----5-----7----------------|
    no esperes      no esperes mas de mi
Добавлено: 29.04.2012
Другие материалы по этой песне:

Страница создана 29.03.2012
http://primanota.ru/soda-stereo/tele-k-chords.htm
Привет, Гость.
Предлагаем пройти революционный курс по гитаре.
Подарок от PrimaNota.Ru, забирай!