PrimaNota.ru - самый крупный в мире бесплатный архив песенных текстов, аккордов, табулатур и нот


Soda Stereo - Musica Ligera - таба, бас-таба, видео

Регистрация Запомнить меня
Войти через:  Facebook Google Twitter Vk Yandex Mail.ru

Soda Stereo - Musica Ligera - таба, бас-таба, видео

Печатать
Просмотров: 162
|--7--5--7---5---7---5----------------------------7s12----12---10--9---10---12----10--9---7---9--|
|------------------------------7---5---7---5---7-------------------------------------------------|
|------------------------------------------------------------------------------------------------|
|------------------------------------------------------------------------------------------------|
|------------------------------------------------------------------------------------------------|
|------------------------------------------------------------------------------------------------|

|----------------------------------------------------------------------------------------------------|
|-10—10s12------10h12---10h12-------------------------------10h12---10h12----------------------------|
|---------------------------------------------10h12-------10h12-------------------------10h12-10h12--|
|----------------------------------------------------------------------------------------------------|
|----------------------------------------------------------------------------------------------------|
|----------------------------------------------------------------------------------------------------|

|--14---12---14--12--14--15--14--12--12--14--15-14--12--10--9--10--12--10--9--|
|-----------------------------------------------------------------------------|
|-----------------------------------------------------------------------------|
|-----------------------------------------------------------------------------|
|-----------------------------------------------------------------------------|
|-----------------------------------------------------------------------------|

You can like improvise a little bit in 9th, 7th, 5th frets in second string and that's it...
Добавлено: 17.06.2012
Другие материалы по этой песне:

Страница создана 10.05.2012
http://primanota.ru/soda-stereo/musica-ligera-chords.htm
Привет, Гость.
Предлагаем пройти революционный курс по гитаре.
Подарок от PrimaNota.Ru, забирай!