PrimaNota.ru - самый крупный в мире бесплатный архив песенных текстов, аккордов, табулатур и нот


Soda Stereo - Hombre Al Agua - текст песни, бас-таба, видео

Регистрация Запомнить меня
Войти через:  Facebook Google Twitter Vk Yandex Mail.ru

Soda Stereo - Hombre Al Agua - текст песни, бас-таба, видео

Печатать
Просмотров: 89
Авторы: Daniel Melero, Gustavo Cerati

Intro/verso
G|-------------------------------------------------------------------------|
D|------------------------------5------------------------------------------|
A|--7-5-----5-7------5-7-5--5-7---7-5--------4-------5-4------4---5-4------|
E|-------7-----5--7-------7-----------5-3-5---5-3-5-----5-7-5---5----------|

..y cuando salto de cubierta..  
...flotando por el rio..
G|--------------------------------------------------------------------------|
D|--------------------------------------------------------------------------|
A|--3-3-3-3-3-3-3-3-3-3-3----5555555------------------------5---------------|
E|-----------------------------------555555--2222222--5555-5--5-------------|

...abandona la corriente..
..voy envuelto en la corriente..
G|--------------------------------------------------------------------------|
D|--------------------------------------------------------------------------|
A|--3-3-3-3-3-3-3-3-3-3-3---------------------------------------------------|
E|-------------------------5-5-5-5-5-5-5-5-5-5-5-5-5-5-5-5-5-5--------------|


Coro (Hombre al agua....   voces que se agitan)
G|--------------------------------------------------------------------------|
D|--------------------------------------------------------------------------|
A|----------------------------------------------------------------3-3-2-----|
E|-0-0-0--0-3-3-3--3-5-5-5--5--8-8-7-8----0-0-0-0-3-3-3-3-5-5-5-5-------3---|

^   x 2

dejenme en el agua! (segundo solo)
G|--------------------------------------------------------------------------|
D|-------------------------5------------------------------------------------|
A|-7---5--7---5-7--5-7---5---7-5--------4-------5-4-------4----5-4----------|
E|---7--7---7----7-----7----------5-3-5---5-3-5-----5-7-5---5---------------|


G|--------------------------------------------------------------------------|
D|-----------------------------5--------------------------------------------|
A|--7---5-7---5-7---5-7---5-7----7-5-------4-------5-4-------4---5----------|
E|----7-----7-----7-----7------------5-3-5---5-3-5-----5-7-5---5------------|

regresa otraves al "voy flotando por el rio"

Coro

"Amanecio.. abre los ojos.."
G|--------------------------------------------------------------------------|
D|--------------------------------------------------------------------------|
A|--2-2-2-2-2-2-2-2-----------------2-2-2-2-2-2-2-2---5-5-------------------|
E|-------------------5-5----0-0----------------------------0-0--------------|

G|--------------------------------------------------------------------------|
D|--------------------------------------------------------------------------|
A|--------------------------------------------------------------------------|
E|-2-2-2-2-2-2-2---0-0---3-3---5--------------------------------------------|

por el resto del solo toca lo que se toca en el coro y ya es toda la cancion

termina en la nota A del traste 5 en la cuarta cuerda.


| /  slide up
| \  slide down
| h  hammer-on
| p  pull-off
| ~  vibrato
| +  harmonic
| x  Mute note
===============================================================================
Добавлено: 20.10.2013
Другие материалы по этой песне:

Страница создана 07.03.2012
http://primanota.ru/soda-stereo/hombre-al-agua-chords.htm
Привет, Гость.
Предлагаем пройти революционный курс по гитаре.
Подарок от PrimaNota.Ru, забирай!