PrimaNota.ru - самый крупный в мире бесплатный архив песенных текстов, аккордов, табулатур и нот


Soda Stereo - Estoy Azulado - аккорды и текст, таба, видео

Регистрация Запомнить меня
Войти через:  Facebook Google Twitter Vk Yandex Mail.ru

Soda Stereo - Estoy Azulado - аккорды и текст, таба, видео

Печатать
Просмотров: 153
Уроки эстрадного вокала в Санкт-Петербурге
Авторы: Gustavo Cerati, Richard Coleman

Estoy Azulado
Soda Stereo
		   The song starts with a saxo intro and then, like at 1:02 ther's a silence until 1:08 when te 1° intro starts

1° intro
e----------------------------------------------------------------0-----------------------13------------15-----  }  (play them together an it's the fast part)
b--------------------1----------------0-----------------3-------------------------------13------------15------  }
g--------------0-----------------0----------------2-----------------------------------------------------------
d-------3-------------------3---------------------------------------------------------------------------------
a-------------------------------------------------------------------------------------------------------------
e-------------------------------------------------------------------------------------------------------------


2ºintro
e-------------------8--------------7-----------------12------------13------12--------------------------|
b---------------8-------------8---------------15-------------------13------12--------------------------|
g--------10------------10-----------14-----------------------------------------------------------------|
d------------------------------------------------------------------------------------------------------|
a------------------------------------------------------------------------------------------------------|
e------------------------------------------------------------------------------------------------------|


part 1
sola vino a...
e------------------------------------------------------------------------------------------------------------
b------------------------------------------------------------------------------------------------------------
g---------------0----------------------0------------------------0-----------------------0--------------------
d----------3-------3--------------3--------3--------------3-------3-------------3--------3-------------------
a------5--------------5-------3----------------3------2---------------2----3-----------------3---------------
e------------------------------------------------------------------------------------------------------------

mi ficcion
e------------------------------------------------------------------------------------------------------------|
b--------------------------------------------1-----------------------3----------------------1----------------|
g-------------0-----------------------2--------2---------------4-------4-------------2--------2--------------|
d---------3------3------------3--------------------3-----5----------------5----3----------------3------------|
a---5---------------5----------------------------------------------------------------------------------------|
e------------------------------------------------------------------------------------------------------------|

repeat that same arpegio many times and Cerati uses a delay

arpegios
sola vino a mi ficción, sin dudar a acompañarme
signos sin traducción, silencio insuperable
mim                             la      fa
cuanto habré cambiado, que se haba gastado
mim                sol                la
podría comunicarme pero siendo tanto
la erosión (acompañada de la intro)

arpegios
cerca de su atracción, tropiezo con mis manos
sufro ultra mutación, un color azulado
sim   do                  sim       do                  sim do
algo esta ligándome cuando estoy azulado quiero recuperarme
sim- do   rem...( many times)...intro...
azulado
mim-la                 fa    sol   mim   la   fa
azulado cambiaria de color, a tu lado ouh...
por que
sim- do
algo esta ligándome cuando estoy azulado quiero recuperarme

 estoy azulado  (with the intro)     
Добавлено: 18.10.2013
Другие материалы по этой песне:

Страница создана 08.03.2012
http://primanota.ru/soda-stereo/estoy-azulado-chords.htm
Привет, Гость.
Предлагаем пройти революционный курс по гитаре.
Подарок от PrimaNota.Ru, забирай!