PrimaNota.ru - самый крупный в мире бесплатный архив песенных текстов, аккордов, табулатур и нот


Soda Stereo - En La Ciudad De La Furia - аккорды и текст, таба, бас-таба, видео

Регистрация Запомнить меня
Войти через:  Facebook Google Twitter Vk Yandex Mail.ru

Soda Stereo - En La Ciudad De La Furia - аккорды и текст, таба, бас-таба, видео

Печатать
Просмотров: 181
Уроки эстрадного вокала в Санкт-Петербурге
En La Ciudad De La Furia
Soda Stereo
*----------------------------------PLEASE NOTE--------------------------------*
*This file is the author's own work and represents their interpretation of the*
*song. You may only use this file for private study, scholarship, or research.*
*-----------------------------------------------------------------------------*

Lanzado en Septiembre de 1988, "En La Ciudad De La Furia" es el primer sencillo 
del cuarto álbum de Soda Stereo, "Doble Vida". El tema está considerado dentro
de las 50 mejores canciones del rock argentino según la revista Rolling Stone
y la cadena televisiva MTV. Es una de las partes fundamentales de los conciertos
de Soda Stereo por su ambiente místico y gótico, además de incluir frecuentemente
solos de guitarra extendidos por G. Cerati.


Tab por Pelusteriano
Contactar en mi perfil de UG
Letra por Gustavo Cerati
Composición por Soda Stereo & Daniel Dais (teclado)

===============================================================================
Armonizado en Re mayor

Acordes (de bajo a alto, en orden de aparición)
Cadd9 X3203X  G 320033  Em7 02203X  A X02220  G7M 3X0032  F#m 244222  Bm X24432  D X54232

  INTRO

  Cadd9  G
|-----|--3--|---5----5----5----5----5----7----7----7----10---9-|
|--3--|--3--|--8----8----8----8----8----8----8----8----8----8--|
|--0--|--0--|-9----9----9----9----9----9----9----9----9----9---|
|--2--|--0--|--------------------------------------------------|
|--3--|--2--|--------------------------------------------------|
|-----|-----|--------------------------------------------------|


|| -- 5----5----5----5----5- ||  |---7----7----7----10---9-|---10---10---10---10---10-----|
|| --8----8----8----8----8-- ||  |--8----8----8----8----8--|--8----8----8----8----8-------|
||O-9----9----9----9----9---O||  |-9----9----9----9----9---|-9----9----9----9----9--------|
||O-------------------------O||  |-------------------------|------------------------------|
|| ------------------------- ||  |-------------------------|------------------------------|
|| ------------------------- ||X2|-------------------------|--------------------------12\-|

Em7   G A   Em7   G A
G7M  A   G7M  A


  VERSO I

     Em7      G          A           Em7  G  A
Me verás volar por la ciudad de la furia
G            A        G         A
Donde nadie sabe de mí y yo soy parte de todo


  VERSO II 

        Em7     G      A        Em7  G  A
 Nada cambiará con un aviso de curva
 G            A
 En sus caras veo el temor
 G
 Ya no hay fábulas
 A                  (entra rasgueo de Interludio)
 En la ciudad de la furia


  INTERLUDIO

|| -7-x-7-x-7--77777-x-|-7-x-7-x-7-7--7-x-7-- ||
|| -7-x-7-x-7--77777-x-|-8-x-8-x-8-7--7-x-7-- ||
||O-7-x-7-x-7--77777-x-|-7-x-7-x-7-7--9-x-9--O||
||O-9-x-9-x-9--99999-x-|-9-x-9-x-9-9--9-x-9--O||
|| --------------------|--------------------- ||
|| --------------------|--------------------- ||x4


  PRE-CORO

     Em7     G        A        Em7  G  A
Me verás caer como un ave de presa
     G       A        G        A
Me verás caer sobre terrazas desiertas, oh!
      Em7   G        A         Em7  G  A
Te desnudaré por las calles azules
     G                          A       F#m
Me refugiaré antes que todos despierten 

  
  CORO

 Bm     D      G        Bm     D
 Me dejarás dormir al amanecer
 G         A        G         A       F#m
 Entre tus piernas, entre tus piernas
 Bm          D    G          Bm      D
 Sabrás ocultarme bien y desaparecer
 G        A       G        A
 Entre la niebla, entre la niebla
 Cadd9      G
 Un hombre alado, extraña la tierra


  INTERLUDIO

|---5----5----5----5----5----7----7----7----7-----|
|--8----8----8----8----8----8----8----8----8------|
|-9----9----9----9----9----9----9----9----9-------|
|-------------------------------------------------|
|-------------------------------------------------|
|---------------------------------------------12\-|


  VERSOS III & IV

    Em7    G    A                     Em7 G A
 Me verás volar por la ciudad de la furia
 G           A
 Donde nadie sabe de mi
 G           A
 Y yo no soy parte de todo

        Em7          G      A         Em7 G A
 Con la luz del sol, se derriten mis alas
 G            A
 En sus caras veo el temor
 G                 A
 Ya no hay fábulas

 En la ciudad de la furia


  INTERLUDIO

|| -7-x-7-x-7--77777-x-|-7-x-7-x-7-7--7-x-7-- ||
|| -7-x-7-x-7--77777-x-|-8-x-8-x-8-7--7-x-7-- ||
||O-7-x-7-x-7--77777-x-|-7-x-7-x-7-7--9-x-9--O||
||O-9-x-9-x-9--99999-x-|-9-x-9-x-9-9--9-x-9--O||
|| --------------------|--------------------- ||
|| --------------------|--------------------- ||x4


  PRE-CORO

     Em7     G         A         Em7  G  A
Me verás caer como una flecha salvaje
     G       A      G        A
Me verás caer entre vuelos fugaces, oh!
       Em7       G A         Em7  G  A
Buenos Aires se ve tan susceptible
G              A       G                       A     F#m
Ese destino de furia es lo que en sus caras persiste


  CORO

 Bm     D      G        Bm     D
 Me dejarás dormir al amanecer
 G         A        G         A       F#m
 Entre tus piernas, entre tus piernas
 Bm          D    G          Bm      D
 Sabrás ocultarme bien y desaparecer
 G        A       G        A
 Entre la niebla, entre la niebla
 Cadd9      G
 Un hombre alado, prefiere la noche


  INTERLUDIO

|| ---5----5----5----5----5----5----5----5----5---5-- ||
|| --8----8----8----8----8----8----8----8----8---8--- ||
||O-9----9----9----9----9----9----9----9----9---9----O||
||O--------------------------------------------------O||
|| -------------------------------------------------- ||
|| -------------------------------------------------- ||x2

(puedes terminar aquí la canción o continuar con el solo,
 aunque en este caso es necesaria una guitarra eléctrica)

Para aprender el solo, accede aquí: http://goo.gl/tW5x9I
Добавлено: 02.09.2014
Другие материалы по этой песне:

Страница создана 06.05.2012
http://primanota.ru/soda-stereo/en-la-ciudad-de-la-furia-chords.htm
Привет, Гость.
Предлагаем пройти революционный курс по гитаре.
Подарок от PrimaNota.Ru, забирай!