PrimaNota.ru - самый крупный в мире бесплатный архив песенных текстов, аккордов, табулатур и нот


Soda Stereo - El Tiempo Es Dinero - текст песни, бас-таба, видео

Регистрация Запомнить меня
Войти через:  Facebook Google Twitter Vk Yandex Mail.ru

Soda Stereo - El Tiempo Es Dinero - текст песни, бас-таба, видео

Печатать
Просмотров: 139
Уроки эстрадного вокала в Санкт-Петербурге
Авторы: Gustavo Cerati

En realidad comienza el bajo en LA pero luego no pasa a RE sino
que sigue en LA pero en una octava mas arriba, como que hay un
error de cuerda. Además luego de oír el tema veo que termina en
1 y 3, es decir en FA y en SOL y no en MI y SOL.
Bueno, quedaría así:


INTRO
G--------4--------------|          G----------------------------|
D-----55----------------|  x4      D----------9-----------------|  x4
A----------5-5-7-7------|      ó   A-0-0-1010----------------0-0|
E-5-5--------------5-5--|          E-------------10-10-12-12----|

Estrofa I
G-------------------------------------------|
D---7-77-777--5-55-555--4-44-444------------|
A---------------------------------5-55-555--|
E-5-----------------------------------------|

G---------------------------------------------------------|
D---7-77-77--5-55-55--------------------------------------|
A-------------------------1919-17h19-1919-17h19-1919-1919-|
E-5--------------------0----------------------------------|


Estrofa II
G--------------------------------------|
D----------66666666----------44444444--|  x2
A--------------------------------------|
E-55555555----------33333333-----------|

G-------------|
D-------------|
A-------------|
E-1-1-1--3----|


Repite INTRO X4


Estrofa III
G--------------------------------------|
D----------66666666----------44444444--|  x2
A--------------------------------------|
E-55555555----------33333333-----------|

G-------------|
D-------------|
A-------------|
E-1-1-1--3----|


Repite INTRO X4


Repite Estrofa I
G------------------------------------------|
D---7-77-777--5-55-555--4-44-444-----------|
A--------------------------------5-55-555--|
E-5----------------------------------------|

G---------------------------------------------------------|
D---7-77-77--5-55-55--------------------------------------|
A-------------------------1919-17h19-1919-17h19-1919-1919-|
E-5--------------------0----------------------------------|


Estrofa IV
G---------------------------------------------------------------------|
D-----------------------77---77---77----7h9-7-------------------------|
A-99---99---99---99-7h9----7----7-----7--------99---99---99----99-----|
E----8----8----8----------------------------------8----8----8-----8-9-|

G------------|
D------------|  x4
A-5-2---3----|
E-----0------|


INTRO X4 y luego:

G-9--------4---------|
D---7-7--5-----------|  x3 y luego
A-------------5-5h7--|
E--------------------|

4º compás hace:
G---4--------|
D-5----------|
A-----5-5h7s-| -->(slide desc.)
E------------|


G-------------|
D-------------| x2
A---4---5-----|
E-5---2-------|


G-------------|
D-------------|
A-------------|
E-1-1-1--3----|


Repite INTRO x4


Repite Estrofa I (x2)
G-------------------------------------------|
D---7-77-777--5-55-555--4-44-444------------|
A---------------------------------5-55-555--|
E-5-----------------------------------------|

G---------------------------------------------------------|
D---7-77-77--5-55-55--------------------------------------|
A-------------------------1919-17h19-1919-17h19-1919-1919-|
E-5--------------------0----------------------------------|


Solo de bajo:
G-----------------------------------------------------------|
D-----------------------------------------------------------|
A-12-10-12-10-12s14-15-14-15-14-15s17-1717-15-17-15-17-1717-|
E-----------------------------------------------------------|

G-------------------------------------------------------------------|
D-------------------------------------------------------------------|
A-1212-10-12-1212s14-15-1515-17h1919-17-191919-17-191919-17-19-1919-|
E-------------------------------------------------------------------|


G------------||
D------------||
A------------||
E-1-1-1--3~--||         ~ (vibrar la cuerda)
Добавлено: 11.05.2012
Другие материалы по этой песне:
  • Аккорды и текст

Страница создана 11.05.2012
http://primanota.ru/soda-stereo/el-tiempo-es-dinero-chords.htm
Привет, Гость.
Предлагаем пройти революционный курс по гитаре.
Подарок от PrimaNota.Ru, забирай!