PrimaNota.ru - самый крупный в мире бесплатный архив песенных текстов, аккордов, табулатур и нот


Social Distortion - Reach For The Sky - Live - таба, видео

Регистрация Запомнить меня
Войти через:  Facebook Google Twitter Vk Yandex Mail.ru

Social Distortion - Reach For The Sky - Live - таба, видео

Печатать
Просмотров: 113
Уроки эстрадного вокала в Санкт-Петербурге
---------------------------------------------------------------------------------------------------------------
                                          Artist - Social Distortion
                                         ****************************
                                        Song - Reach For the Sky (LIVE)
                                       *********************************
                                             Tabbed By - Ayreon77
                                            **********************
---------------------------------------------------------------------------------------------------------------
Tuning = Standard


------------
CAPO 2 FRET
------------

04:32
SOLO
*****
e|-------------|----h--------------------|---------------|---------------|------------------------------|
B|-------------|---6-7-9--9---9-7-9------|---b-b--p----6-|---------------|------------------------------|
G|------6-6~~~-|-6------------------8~~~-|-6-8-8-8-6---6-|--p------------|--p---------------------------|
D|-8-8---------|-------------------------|-----------8---|-8-6---6-8-8~~-|-8-6---6-----s-----s-s--------|
A|-------------|-------------------------|---------------|-----8---------|-----8---8-8-/6-4-6/8\6-4-6~~-|
E|-------------|-------------------------|---------------|---------------|------------------------------|

04:48
e|---------------|---------------------|--h----------------|---------------|-------------|
B|-?????????????-|--s-----6-7-9--9-9-9-|-6-7-9--9--9-7-6---|---b--brp----6-|-------------|
G|---------------|-6/8-----------------|-----------------8-|-6-8--8--6---6-|--p----------|
D|--h-p-p--------|-----8---------------|-------------------|-----------8---|-8-6---6-8-8-|
A|-4-6-4-0-4-----|---------------------|-------------------|---------------|-----8-------|
E|-----------6-6-|---------------------|-------------------|---------------|-------------|

                                        ?
e|------------------------|-----------|---|
B|------------------------|-----------|-3-|
G|--p---------------------|-----------|-3-|
D|-8-6---6----s----s------|--p--------|-3-|
A|-----8---8-6/8--8/6-4-6-|-6-4--p--4-|---|
E|------------------------|-----6-4---|---|



ENJOY.............
Добавлено: 17.04.2016
Другие материалы по этой песне:
  • Аккорды и текст

Страница создана 17.04.2016
http://primanota.ru/social-distortion/reach-for-sky-live-chords.htm
Привет, Гость.
Предлагаем пройти революционный курс по гитаре.
Подарок от PrimaNota.Ru, забирай!