PrimaNota.ru - самый крупный в мире бесплатный архив песенных текстов, аккордов, табулатур и нот


Social Distortion - 1945 - текст песни, таба, видео

Регистрация Запомнить меня
Войти через:  Facebook Google Twitter Vk Yandex Mail.ru

Social Distortion - 1945 - текст песни, таба, видео

Печатать
Просмотров: 115
----------------------------------------------------------------------------
			     1945 - social distortion
----------------------------------------------------------------------------
Tabbed by:hendrxrockera7x

Tuning:standard

Major chord progression:
e|------------------------------------------------------------------------|
B|------------------------------------------------------------------------|
G|--6-5-3------6-5--------------------------------------------------------|
D|--6-5-3------6-5-6------------------------------------------------------|
A|--4-3-1------4-3-6------------------------------------------------------|
E|-----------------4------------------------------------------------------|

solo 1:
e|------------------------------------------------------------------------|
B|------------------------------------------------------------------------|
G|------------------------------------------------------------------------|
D|---11-10-8-8-8-8--11-10-8-8---------11-10-8-10-11-10-8-1010-11-10-------|
A|------------------------------11-11-------------------------------------|
E|------------------------------------------------------------------------|
(use heavy vibrato)
e|------------------------------------------------------------------------|
B|----------------------------////////-------9--9h11-11-------------------|
G|----------------------------////////------10-10----10-------------------|
D|---8-10-11-10-8-10-11-13----////////------------------------------------|
A|------------------------------------------------------------------------|
E|------------------------------------------------------------------------|
then pickslide

solo 2:
e|------------------------------------------------------------------------|
B|------------------------------------------------------------------------|
G|---6-10-8-6----6----6----6---8-8h10p8-6h8-8-8-8-8-6h8--8h10p8-6-6-6-6---|
D|-------------6-8b-6-8b-6-8b-------------------------------------8-8-----|
A|------------------------------------------------------------------------|
E|------------------------------------------------------------------------|

e|----------------------------------------------------66---66--66--66--66-|
B|----------------------------------------------------66---66--66--66--66-|
G|--8h10p8-6-6-6-6-----6-6---6-6---6-6---6-6--------8b---8b--8b--8b--8b---|
D|-----------8-8-----8-8-8-8-8-8-8-8-8-8-8-8-8-6vb------------------------|
A|------------------------------------------------------------------------|
E|------------------------------------------------------------------------|

e|---6--6--6--6--66-------------------------------------------------------|
B|---6--6--6--6--66---(do last to parts a couple of imes)-----------------|
G|-8b-8b-8b-8b-8b--r------------------------------------------------------|
D|------------------------------------------------------------------------|
A|------------------------------------------------------------------------|
E|------------------------------------------------------------------------|

e|------------------------------------------------------------------------|
B|--------------66-----------6b6b-----------66--------------------66------|
G|--------------66-----------6b6b-----------66-8b8br-6------------66------|
D|-------6-6h8-8--------6h8-8--------6-6h8-8--------------6-6hh8-8--------|
A|----6h8----------6h8-8----------6h8------------------6h8----------------|
E|------------------------------------------------------------------------|

e|------------------------------------------------------------------66-------|
B|------------6b6b-----------66-------------------------------------66-------|
G|------------6b6b-----------66-8b8b8br-(8b8r-6-6-2x)-66666666-8-(8b---8x)---|
D|-------6h8-8--------6-6h8-8-------------------8------8-8-8-8---------------|
A|--6h8-8----------6h8-------------------then-do-part-in-parenthesis---------|
E|----------------------------------------except-w/a-6-@-end-3x--------------|


| /  slide up
| \  slide down
| h  hammer-on
| p  pull-off
| ~  vibrato
| +  harmonic
| x  Mute note
===========================================================================
Добавлено: 23.08.2013
Другие материалы по этой песне:
  • Аккорды и текст

Страница создана 23.05.2012
http://primanota.ru/social-distortion/1945-chords.htm
Привет, Гость.
Предлагаем пройти революционный курс по гитаре.
Подарок от PrimaNota.Ru, забирай!