PrimaNota.ru - самый крупный в мире бесплатный архив песенных текстов, аккордов, табулатур и нот


Social Burn - Down - таба, видео

Регистрация Запомнить меня
Войти через:  Facebook Google Twitter Vk Yandex Mail.ru

Social Burn - Down - таба, видео

Печатать
Просмотров: 71
Уроки эстрадного вокала в Санкт-Петербурге
		   Corrections:  tabguitar11982@yahoo.com>
Date: Thu, 27 Feb 2003 21:54:25 -0800 (PST)

 Artist: Socialburn
 Song: Down
 Album: Where You Are
 Music by: Dusty Price & Neil Alday 
 Tuning: Drop D 

 ::This is actually a very easy song to learn. This is the way it
   SHOULD be played. If you don't believe, ask lead guitarist 
   Chris Cobb himself, or just watch the acoustic video at 
   www.socialburn.com::

 ::Neil's rythym guitar part is basically the same structure. It's
   pretty easy, you can figure it out by listening to the song::

 Verse:
 e |---------------------------------------------------|
 B |---------------------------------------------------|
 G |---------------------------------------------------|
 D |7-7-7-10-10-10-10-10--7-7-7-10-10-10-10-10--3--3--5| :repeat:
 A |7-7-7-10-10-10-10-10--7-7-7-10-10-10-10-10--3--3--5|
 D |7-7-7-10-10-10-10-10--7-7-7-10-10-10-10-10--3--3--5|
    "Tell me how..."

 Pre-Chorus:
 e |--------------------------------|
 B |--------------------------------|
 G |--------------------------------|
 D |3-3-3-3-3-3-3-3--5-5-5-5-5-5-5-5|
 A |3-3-3-3-3-3-3-3--5-5-5-5-5-5-5-5|
 D |3-3-3-3-3-3-3-3--5-5-5-5-5-5-5-5|
    "(Like) nothing..."

 Chorus:
 e |-------------------------------------------------|
 B |-------------------------------------------------|
 G |-------------------------------------------------|
 D |3-3-3-3-3-3-3-3--7-7-7-7-7-7-7-7--3-3-3-3-3-3-3-3|
 A |3-3-3-3-3-3-3-3--7-7-7-7-7-7-7-7--3-3-3-3-3-3-3-3|
 D |3-3-3-3-3-3-3-3--7-7-7-7-7-7-7-7--3-3-3-3-3-3-3-3|
    "When you bring me down..."
 e |-------------------------------------------------|
 B |-------------------------------------------------|
 G |-------------------------------------------------|
 D |7-7-7-7-7-7-7-7--3-3-3-3-3-3-3-3--7-7-7-7-7-7-7-7|
 A |7-7-7-7-7-7-7-7--3-3-3-3-3-3-3-3--7-7-7-7-7-7-7-7|
 D |7-7-7-7-7-7-7-7--3-3-3-3-3-3-3-3--7-7-7-7-7-7-7-7|
    "and wrestle with..."
 e |---------------|
 B |---------------|
 G |---------------|
 D |5-5-5-5-5-5-5-5|
 A |5-5-5-5-5-5-5-5|
 D |5-5-5-5-5-5-5-5|
    "(I'm) nothing...

 Bridge:
 e |------------------------------|
 B |------------------------------|
 G |------------------------------|
 D |3h5-5--3-3h5-5--3h5-5--3-3h5-5|
 A |3h5-5--3-3h5-5--3h5-5--3-3h5-5|
 D |3h5-5--3-3h5-5--3h5-5--3-3h5-5|

 Solo:
 e |--------------------------------------------|
 B |--------------------------------------------|
 G |7/9-7/9-7/9-7/9-7/12-12--7/9-7/9-5/4-5/4-5/4|
 D |--------------------------------------------|
 A |--------------------------------------------|
 D |--------------------------------------------|

 e |----------------------------------------------------|
 B |----------------------------------------------------|
 G |7/9-7/9-7/9-7/9-7/12-12--7/9-7/9-5/4-5/4-5/4-5/4-5/7|
 D |----------------------------------------------------|
 A |----------------------------------------------------|
 D |----------------------------------------------------|

   ::Pick back up at pre-chours::

 Ending (from last beat of chours):
 e |--------------------------------|
 B |--------------------------------|
 G |--------------------------------|
 D |5-5-5-5-5-5-5-5--5-5-5-5-5-5-5-5| ::let ring through to fade::
 A |5-5-5-5-5-5-5-5--5-5-5-5-5-5-5-5|
 D |5-5-5-5-5-5-5-5--5-5-5-5-5-5-5-5|

 ::That's it, hope this helps all us aspiring guitarists::
     
Добавлено: 17.08.2013
Другие материалы по этой песне:
  • Аккорды и текст

Страница создана 17.08.2013
http://primanota.ru/social-burn/down-chords.htm
Привет, Гость.
Предлагаем пройти революционный курс по гитаре.
Подарок от PrimaNota.Ru, забирай!