PrimaNota.ru - самый крупный в мире бесплатный архив песенных текстов, аккордов, табулатур и нот


Soak - Sea Creatures - таба, видео

Регистрация Запомнить меня
Войти через:  Facebook Google Twitter Vk Yandex Mail.ru

Soak - Sea Creatures - таба, видео

Печатать
Просмотров: 73
Sea Creatures By Soak
She is an Irish artist from Derry
Rate this fairly as it is my first tab

Intro

e|-----x------------x-----------------x----x-----x--------------------------|
B|-----x------------x-----------------x----x-----x--------------------------|
G|-----x-----6h4----x----6h4----------x----x-----x--------------------------|
D|---6-x--4-------6-x--4--------------x----x-----x---------9----------------|
A|---0-x--0-------0-x--0------------9-x--7-x---9-x--9/11-----11-------------|
E|------x------------x--------------0-x--0-x---0-x--0-----------------------|

Main Riff

e|------x------------x-----------------x----x-----x--------------------------|
B|------x------------x-----------------x----x-----x--------------------------|
G|------x------------x-----------------x----x-----x--------------------------|
D|----6-x--4-------6-x--4--------------x----x-----x--------------------------|
A|----0-x--0-------0-x--0------------9-x--7-x---9-x--7-----------------------|
E|------x------------x---------------0-x--0-x---0-x--0-----------------------|

"I CRY FOR YOU" outro part

e|----4-x--2-------4-x--2--------------x----x--------x----x------------------|
B|------x------------x-----------------x----x--------x----x------------------|
G|------x------------x-----------------x----x--------x----x------------------|
D|----6-x--4-------6-x--4------------9-x--6-x------9-x--7-x------------------|
A|----0-x--0-------0-x--0------------7-x--7-x------7-x--6-x------------------|
E|------x------------x-----------------x----x--------x----x------------------|

Listen to the real thing!!!

http://www.youtube.com/watch?v=PQSTAI3VR2Q
Добавлено: 01.06.2013
Другие материалы по этой песне:
  • Аккорды и текст

Страница создана 01.06.2013
http://primanota.ru/soak/sea-creatures-chords.htm
Привет, Гость.
Предлагаем пройти революционный курс по гитаре.
Подарок от PrimaNota.Ru, забирай!