PrimaNota.ru - самый крупный в мире бесплатный архив песенных текстов, аккордов, табулатур и нот


Snowmine - Beast In Air Beast In Water - таба, видео

Регистрация Запомнить меня
Войти через:  Facebook Google Twitter Vk Yandex Mail.ru

Snowmine - Beast In Air Beast In Water - таба, видео

Печатать
Просмотров: 69
Standard Tuning

[0:10]-[0:23]
|--14----14----14------------------12----12----12----12--|
|-----15----15----15--17/19\17--14----14----12----12-----|
|--------------------------------------------------------|
|--------------------------------------------------------|
|--------------------------------------------------------|
|--------------------------------------------------------|
|
|x2

[0:54]-[1:14]
|--14~----11~--|
|--15~----12~--|
|--14~----13~--|
|--------------|
|--------------|
|--------------|
|
|x3

Chorus
[1:23]-[1:51]
|----------------------------------------------------|
|--15-14-12-----12-----------------------------------|
|-----------14-----11---11------11-------------------|
|-------------------------14--14------11~------------|
|----------------------------------14~------14-9-12--|
|----------------------------------------------------|
|
|----------------------------------------------------|
|--15-14-12-----12-----------------------------------|
|-----------14-----11---11------11-------------------|
|-------------------------14--14------11~------11----|
|----------------------------------14~------14----14-|
|----------------------------------------------------|
|
|-----------14---------------------------------------|
|--15-14-12------------------------------------------|
|--------------14-13---11------11--------------------|
|------------------------14--14------11~-------------|
|---------------------------------14~-----14-9-12----|
|----------------------------------------------------|
|
|-----------14---------------------------------------|
|--15-14-12------------------------------------------|
|--------------14-13---11------11--------------------|
|------------------------14--14------11~---11--------|
|---------------------------------14~---------14-12--|
|----------------------------------------------------|
|
|x1

[2:17]-[2:26]
|--11~-----14-14~-------11~--|
|--12~--14----14~-------12~--|
|--13~--------13~-------13~--|
|----------------------------|
|----------------------------|
|----------------------------|
|
|x1


Repeat Chorus Line
[2:34]-[3:02]
[3:46]-[4:45]x2
Добавлено: 02.09.2013
Другие материалы по этой песне:
  • Аккорды и текст

Страница создана 02.09.2013
http://primanota.ru/snowmine/beast-in-air-beast-in-water-chords.htm
Привет, Гость.
Предлагаем пройти революционный курс по гитаре.
Подарок от PrimaNota.Ru, забирай!