PrimaNota.ru - самый крупный в мире бесплатный архив песенных текстов, аккордов, табулатур и нот


Snow - Things To Say - текст песни, таба, видео

Регистрация Запомнить меня
Войти через:  Facebook Google Twitter Vk Yandex Mail.ru

Snow - Things To Say - текст песни, таба, видео

Печатать
Просмотров: 143
----------------------------------------------------------------------------
                             THINGS TO SAY - Snow
----------------------------------------------------------------------------

Transcribed by: Azzdem
Email: webmaster@snowlyrics.com
Album: Murder Love
Website: www.snowlyrics.com

=================================

The following is pretty much repeated throughout the whole song:

GUITAR LICKS

E-----------------------------------------------|
B--5--3----5--3----5--3----5--3----5--8----5----|
G-----------------------------------------------|
D-----------------------------------------------|
A-----------------------------------------------|
E-----------------------------------------------|

E-----------------------------------------------|
B--5--3----5--3----5--3----5--3----5--8----10---|
G-----------------------------------------------|
D-----------------------------------------------|
A-----------------------------------------------|
E-----------------------------------------------|

GUITAR 2 (BASS SOUND)

E-----------------------------------------------|
B-----------------------------------------------|
G-----0---------0------0------------------------|
D--2------2----2----2--------2---0---2----------|
A-----------------------------------------------|
E-----------------------------------------------|

Come down…
All right…
Hear dis!
Baby I have no reason why as to spread rumours that would hurt you
In the back of your mind you know that I wouldn't lie
I wouldn't tell you things, mislead you
He's running you down, spreading your name around town (around town)
About your love you must be crazy (crazy)
The truth of it all I can't believe you would fall
For a bullshit love, oh baby (oh baby)
When a man loves a woman when a woman loves a man
They shouldn't speak their business upon the street talk around
(they shouldn't talk about their business)
Pick a person and keep it private
Never want and talk about it (oh)
The choice is a must and now you just
Can't give me stuff to think about

I don't wanna wait in vain for your love (and you won't)
And a when me say (never)
And when me talk of love, yeah girl me talkin' (forever)
Now what about with other girls like a man now when we are (together)
Now if you think I'm a joke and I lie then bomber (whatever)

(don't let him do what you want)
We got so much things to say right now
We got (so much) things to say
(they gotta do what you want)
We got so much things to say right now
We got (so much) things to say
(We got so much things to say right now)
We got so much things to say
We got (so much) things to say right now
We got so much things to say

I keep tellin' ya
(He) says she loves me
(he he) I know it's gonna be above me now
He told me his heart was (mine)
He told me he loved me (loved me)

Blah blah blah he's blabbering all of the time
Search deep in your heart and true love you must find
Pick a person and keep it private never want and talk about it
The choice is a must and now you just can't give me stuff to think about

I don't wanna wait in vain for your love
(I can't wait no more, no,no,no)
I don't wanna wait in vain for your love
(I can't wait, you're taking too long)
(What you gonna do)
I don't wanna wait in vain for your love
(It's up to you)
(Don't make me wait for you, don't have me wait)
I don't wanna wait in vain for your love (and you won't)

And a when me say (never)
And when me talk of love, yeah girl me talkin' (forever)
Now what about with other girls like a man now when we are (together)
Now if you think I'm a joke and I lie then bomber (whatever)

We got so much things to say right now
We got so much things to say
We got so much things to say right now
We got so much things to say
We got so much things to say right now
We got so much things to say
We got so much things to say right now
We got so much things to say
Добавлено: 12.07.2012
Другие материалы по этой песне:
  • Аккорды и текст

Страница создана 12.07.2012
http://primanota.ru/snow/things-to-say-chords.htm
Привет, Гость.
Предлагаем пройти революционный курс по гитаре.
Подарок от PrimaNota.Ru, забирай!