PrimaNota.ru - самый крупный в мире бесплатный архив песенных текстов, аккордов, табулатур и нот


Snow Whites Poison Bite - The End Of Prom Night - бас-таба, видео

Регистрация Запомнить меня
Войти через:  Facebook Google Twitter Vk Yandex Mail.ru

Snow Whites Poison Bite - The End Of Prom Night - бас-таба, видео

Печатать
Просмотров: 154
End of Prom Night
Snow Whites Poison Bite
Tabbed by Hals Shinigami

Yo bros,
This is my first tab here, so do not be too harsh please.
I have to say though this tab is by no means 100% (I think it still sounds good with the track).
I cannot learn anything by ear, and to be honest, I learned this from a guitar cover.
If you have any contributions, message me and I will rectify it! ^^

Intro

F#)----------------------------------------------------------------------------------------------|
C#)----------------------------------------------------------------------------------------------|
G#)------------------------------------9-9-9-9-11-11-11-11-7-7-7-7-7-7-7-7-----------------------|
C#)----7-7---7\2-2---2/4-4---4-------------------------------------------------------------------|

Verse

F#)--------------------------2-1-----|
C#)-----------2-2------2-2--------2--|             (This part is fast; play 2h3 if you are
G#)----2h4-------2h4-----------------|                struggling to get 2h4)
C#)----------------------------------|

F#)--------------------------2-1-----|
C#)-----------2-2------2-2-----------|             
G#)----2h4-------2h4-----------------|              
C#)----------------------------------|

F#)--------------------------2-1-----|
C#)-----------2-2------2-2--------2--|             
G#)----2h4-------2h4-----------------|               
C#)----------------------------------|

F#)----------------------------------|
C#)----------------------------------|
G#)----5-7-7--7-9-9--9-10-10---------|
C#)----------------------------------|

Pt 2

F#)----------------------------------|
C#)----------------------------------|
G#)----0~~~~-------------------------|
C#)-------------5~~~-7~~~-9~~~-------|

F#)--------------------------------------------------------|
C#)--------------------------------------------------------|       x2
G#)----0---------------------------------------------------|
C#)--------5-5-5-5--7-7-7-7--9-9-9-9--7-7-7-7--------------|

Pre-chorus

F#)----------------|
C#)----------------|
G#)----------------|
C#)----0(x16)------|

Chorus

F#)-------------------------------------------------------|
C#)-------------------------------------------------------|
G#)-------------------------------------------------------|
C#)---7(x16)-2(x16)-0(x16)-4(x8)-2(x8)--------------------|

F#)----------------|
C#)----------------|
G#)----------------|
C#)----7(x16)------|

F#)-----------------------------------|
C#)-----------------------------------|
G#)-----------------------------------|
C#)----7-5-3--7-5-3------7------------|


Verse

F#)--------------------------2-1----------|
C#)-----------2-2------2-2--------2-------|     
G#)----2h4-------2h4----------------------|
C#)---------------------------------------|

F#)--------------------------2-1-----|
C#)-----------2-2------2-2-----------|             
G#)----2h4-------2h4-----------------|              
C#)----------------------------------|

F#)--------------------------2-1----------|
C#)-----------2-2------2-2--------2-------|     
G#)----2h4-------2h4----------------------|
C#)---------------------------------------|

F#)----------------------------------|
C#)----------------------------------|
G#)----5-7-7--7-9-9--9-10-10---------|
C#)----------------------------------|

Pt 2

F#)-------------------------------------------------------|
C#)-------------------------------------------------------|       x2
G#)----0--------------------------------------------------|
C#)--------5-5-5-5--7-7-7-7--9-9-9-9--7-7-7-7-------------|

Pre-chorus

F#)----------------|
C#)----------------|
G#)----------------|
C#)----0(x12)------|

Bridge

F#)----------------------------------------------------------|
C#)----------------------------------------------------------|
G#)----------------------------------------------------------|
C#)----7-7-7-7-2-2-2-2-0-0-0-0-4-4-2-2-----------------------|

F#)----------------------------------------------------|
C#)----------------------------------------------------|
G#)----------------------------------------------------|
C#)----7-7-7-7-2-2-2-2-0-0-2-2-2-2---------------------|

F#)----------------------------------------------------------|
C#)----------------------------------------------------------|
G#)----------------------------------------------------------|
C#)----7-7-7-7-2-2-2-2-0-0-0-0-4-4-2-2-----------------------|

F#)----------------------------------------------------|
C#)----------------------------------------------------|
G#)----------------------------------------------------|
C#)----7-7-7-7-2-2-2-2-0-0-2-2-2-7---------------------|

Break

F#)----------------------------------------------------------------------------------------------|
C#)----------------------------------------------------------------------------------------------|
G#)------------------------------------9-9-9-9-11-11-11-11-7-7-7-7-7-7-7-7-----------------------|
C#)----7-7---7\2-2---2/4-4---4-------------------------------------------------------------------|

Final Chorus

F#)-------------------------------------------------------|
C#)-------------------------------------------------------|           x2
G#)-------------------------------------------------------|
C#)---7(x16)-2(x16)-0(x16)-4(x8)-2(x8)--------------------|

F#)----------------|
C#)----------------|
G#)----------------|
C#)----7(x16)------|

F#)-----------------------------------|
C#)-----------------------------------|          x2
G#)-----------------------------------|
C#)----7-5-3--7-5-3-------------------|

F#)-------------------------------------|
C#)-------------------------------------|
G#)-------------------------------------|
C#)----7-5-3--7-5-3------7b-------------|

Well done soldier, you completed a tab!
Any queries do not hesitate to ask me!
REMEMBER THIS IS NOT 100% ACCURATE!
Have a good day!
Добавлено: 07.11.2013
Вам также может быть интересно:
Другие материалы по этой песне:

Страница создана 25.09.2013
http://primanota.ru/snow-whites-poison-bite/the-end-of-prom-night-chords.htm
Привет, Гость.
Предлагаем пройти революционный курс по гитаре.
Подарок от PrimaNota.Ru, забирай!