PrimaNota.ru - самый крупный в мире бесплатный архив песенных текстов, аккордов, табулатур и нот


Snow Hank - Im Moving On - таба, бас-таба, видео

Регистрация Запомнить меня
Войти через:  Facebook Google Twitter Vk Yandex Mail.ru

Snow Hank - Im Moving On - таба, бас-таба, видео

Печатать
Просмотров: 137
Уроки эстрадного вокала в Санкт-Петербурге
Авторы музыки: Hank Snow
Авторы текста: Hank Snow
I'M MOVING ON

As recorded by Hank Snow
(From the 1950 Album COUNTRY CLASSICS)

Words and Music by Hank Snow

Transcribed by Slowhand


Gtr I (E A D G B E) - 'Acoustic Guitar 1'
Gtr II (E A D G B E) - 'Acoustic Guitar 2'
Gtr III (E A D G B E) - 'Acoustic Guitar 3'


   Intro
    Q=194(8=s8)
    D
   4/4
    Gtr I
    Q  E E E E E E   Q  E E E E E E   Q  E E E E E E   Q  E E E E E E
||-----2-2-2-2-2-2-|----2-2-2-2-2-2-|----2-2-2-2-2-2-|----2-2-2-2-2-2---||
||o----3-3-3-3-3-3-|----3-3-3-3-3-3-|----3-3-3-3-3-3-|----3-3-3-3-3-3--o||
||-----2-2-2-2-2-2-|----2-2-2-2-2-2-|----2-2-2-2-2-2-|----2-2-2-2-2-2---||
||--0--------------|-0--------------|-0--------------|-0----------------||
||o----------------|----------------|----------------|-----------------o||
||-----------------|----------------|----------------|------------------||


   1st - 7th Verses
    $
    $$
    D
    Q  E E E E E E   Q  E E E E E E
||-----2-2-2-2-2-2-|----2-2-2-2-2-2-|
||o----3-3-3-3-3-3-|----3-3-3-3-3-3-|
||-----2-2-2-2-2-2-|----2-2-2-2-2-2-|
||--0--------------|-0--------------|
||o----------------|----------------|
||-----------------|----------------|


                  2/4       4/4
  Q  E E E E E E   E E E E   Q  E E E E E E
|----2-2-2-2-2-2-|-2-2-2-2-|----2-2-2-2-2-2-||
|----3-3-3-3-3-3-|-3-3-3-3-|----3-3-3-3-3-3-||
|----2-2-2-2-2-2-|-2-2-2-2-|----2-2-2-2-2-2-||
|-0--------------|---------|-0--------------||
|----------------|---------|----------------||
|----------------|---------|----------------||


 Chorus
  G                                 D
  Q  E E E E E E   Q  E E E E E E   Q  E E E E E E
|----3-3-3-3-3-3-|----3-3-3-3-3-3-|----2-2-2-2-2-2-|
|----0-0-0-0-0-0-|----0-0-0-0-0-0-|----3-3-3-3-3-3-|
|----0-0-0-0-0-0-|----0-0-0-0-0-0-|----2-2-2-2-2-2-|
|----0-0-0-0-0-0-|----0-0-0-0-0-0-|-0--------------|
|----------------|----------------|----------------|
|-3--------------|-3--------------|----------------|


                   A
  Q  E E E E E E   Q  E E E E E E
|----2-2-2-2-2-2-|----0-0-0-0-0-0---|
|----3-3-3-3-3-3-|----2-2-2-2-2-2---|
|----2-2-2-2-2-2-|----2-2-2-2-2-2---|
|-0--------------|----2-2-2-2-2-2---|
|----------------|-0----------------|
|----------------|------------------|


                                To Dbl. Coda           To Coda
                             D
 2/4       4/4
  E E E E   Q  E E E E E E   Q  E E E E E E    Q  E E E E E E
|-0-0-0-0-|----0-0-0-0-0-0-|----2-2-2-2-2-2--|----2-2-2-2-2-2----||
|-2-2-2-2-|----2-2-2-2-2-2-|----3-3-3-3-3-3--|----3-3-3-3-3-3---o||
|-2-2-2-2-|----2-2-2-2-2-2-|----2-2-2-2-2-2--|----2-2-2-2-2-2----||
|-2-2-2-2-|----2-2-2-2-2-2-|-0---------------|-0-----------------||
|---------|-0--------------|-----------------|------------------o||
|---------|----------------|-----------------|-------------------||


 Fiddle Solo
  D
  Q  E E E E E E   Q  E E E E E E   Q  E E E E E E   Q  E E E E E E
|----2-2-2-2-2-2-|----2-2-2-2-2-2-|----2-2-2-2-2-2-|----2-2-2-2-2-2--|
|----3-3-3-3-3-3-|----3-3-3-3-3-3-|----3-3-3-3-3-3-|----3-3-3-3-3-3--|
|----2-2-2-2-2-2-|----2-2-2-2-2-2-|----2-2-2-2-2-2-|----2-2-2-2-2-2--|
|-0--------------|-0--------------|-0--------------|-0---------------|
|----------------|----------------|----------------|-----------------|
|----------------|----------------|----------------|-----------------|


  G
 4/4              2/4       4/4
  Q  E E E E E E   E E E E   Q  E E E E E E
|----3-3-3-3-3-3-|-3-3-3-3-|----3-3-3-3-3-3-|
|----0-0-0-0-0-0-|-0-0-0-0-|----0-0-0-0-0-0-|
|----0-0-0-0-0-0-|-0-0-0-0-|----0-0-0-0-0-0-|
|----0-0-0-0-0-0-|-0-0-0-0-|----0-0-0-0-0-0-|
|----------------|---------|----------------|
|-3--------------|---------|-3--------------|


  D
  Q  E E E E E E   Q  E E E E E E
|----2-2-2-2-2-2-|----2-2-2-2-2-2---|
|----3-3-3-3-3-3-|----3-3-3-3-3-3---|
|----2-2-2-2-2-2-|----2-2-2-2-2-2---|
|-0--------------|-0----------------|
|----------------|------------------|
|----------------|------------------|


                                                        D.S. al Coda
  A                                 D
  Q  E E E E E E   Q  E E E E E E   Q  E E E E E E   Q  E E E E E E
|----0-0-0-0-0-0-|----0-0-0-0-0-0-|----2-2-2-2-2-2-|----2-2-2-2-2-2--||
|----2-2-2-2-2-2-|----2-2-2-2-2-2-|----3-3-3-3-3-3-|----3-3-3-3-3-3--||
|----2-2-2-2-2-2-|----2-2-2-2-2-2-|----2-2-2-2-2-2-|----2-2-2-2-2-2--||
|----2-2-2-2-2-2-|----2-2-2-2-2-2-|-0--------------|-0---------------||
|-0--------------|-0--------------|----------------|-----------------||
|----------------|----------------|----------------|-----------------||


 Guitar Solo
  &
  N.C.
  Gtr II
  Q  E E E E E E   E E E E  E  E E E   E E E E E E E E   E E E E +E  E E E
|----------------|-------------------|-----------------|--------------------|
|----------------|-------------------|-----------------|--------------------|
|------2-------2-|---2---------2---2-|---2-------2---2-|---2---------2------|
|-0--0---0-0-0---|-4---0-4--4----0---|-4---0-4-4---4---|-4---0-4-(4)---0-0--|
|----------------|-------------------|-----------------|--------------------|
|----------------|-------------------|-----------------|--------------------|
|
| Gtr III
| Q  E E E E E E   E E E E +E  E E E   E E E E Q   E E   E E E E +E  E E E
|----------------|-------------------|-----------------|---2----------------|
|----------------|-------------3-----|---1-----3-------|-3-----3-(3)--------|
|-2--2-0-2-0-2-0-|-2-2-0-2-(2)---2-2-|-2---0-2-----2-2-|-----2-------2-2-2--|
|----------------|-------------------|-----------------|--------------------|
|----------------|-------------------|-----------------|--------------------|
|----------------|-------------------|-----------------|--------------------|


  E E E E +E  E E E   E E E E +E  E E E
|-------------------|-------------------|
|-----3-------3-----|-------------------|
|-3s4---------------|-3s4-4-------4---0-|
|-------5-(5)---5-5-|-------5-(5)---5---|
|-------------------|-------------------|
|-------------------|-------------------|
|
| E E E E +E  E E E   E E E E +E  E E E
|-------------------|-------------------|
|-----3-------3---0-|-----3-------3---0-|
|-5s7---4-(4)---4---|-5s7---4-(4)---4---|
|-------------------|-------------------|
|-------------------|-------------------|
|-------------------|-------------------|


  E E E E +E  E E E   E E E E +E  E E E
|-------------------|--------------------|
|-------------------|--------------------|
|---2---------2-----|---2---------2------|
|-4---0-4-(4)---0-0-|-4---0-4-(4)---0-0--|
|-------------------|--------------------|
|-------------------|--------------------|
|
| E E E E +E  E E E   E E E E +E  E E E
|-------------------|--------------------|
|---3---------------|---3----------------|
|-2-----2-(2)-2-----|-2-----2-(2)-2------|
|-----4---------4-4-|-----4---------4-4--|
|-------------------|--------------------|
|-------------------|--------------------|


                                                       D.S.S. al Dbl. Coda
                                          D
                                          Gtr I
  E E E E +E  E E E   E E E E +E  E E E   Q  E E E E E E   Q  E E E E E E
|-------------------|-------------------|----2-2-2-2-2-2-|----2-2-2-2-2-2--||
|-------------------|-------------------|----3-3-3-3-3-3-|----3-3-3-3-3-3--||
|-------------------|-------------------|----2-2-2-2-2-2-|----2-2-2-2-2-2--||
|---2-2-5-(5)-2-2-2-|---2-2-5-(5)-2-2-2-|-0--------------|-0---------------||
|-4-----------------|-4-----------------|----------------|-----------------||
|-------------------|-------------------|----------------|-----------------||
|
| E E E E +E  E E E   E E E E +E  E E E   Q  E E E E E E   Q  E E E E E E
|-------------------|-------------------|----2-2-2-2-2-2-|----2-2-2-2-2-2--||
|-------------------|-------------------|----3-3-3-3-3-3-|----3-3-3-3-3-3--||
|-------------------|-------------------|----2-2-2-2-2-2-|----2-2-2-2-2-2--||
|-------------------|-------------------|-0--------------|-0---------------||
|-----0-------0-0-0-|-----0-------0-0-0-|----------------|-----------------||
|-4s5---5-(5)-------|-4s5---5-(5)-------|----------------|-----------------||


                    Outro
  &&
  D                  D
  Gtr I
  Q  E E E E E E     Q  E E E E E E   Q  E E E E E E   Q  E E E E E E   3x
|----2-2-2-2-2-2-||-----2-2-2-2-2-2-|----2-2-2-2-2-2-|----2-2-2-2-2-2---||
|----3-3-3-3-3-3-||o----3-3-3-3-3-3-|----3-3-3-3-3-3-|----3-3-3-3-3-3--o||
|----2-2-2-2-2-2-||-----2-2-2-2-2-2-|----2-2-2-2-2-2-|----2-2-2-2-2-2---||
|-0--------------||--0--------------|-0--------------|-0----------------||
|----------------||o----------------|----------------|-----------------o||
|----------------||-----------------|----------------|------------------||


Duration Legend
---------------
W - whole; H - half; Q - quarter; E - 8th; S - 16th; T - 32nd; X - 64th; a - acciaccatura
+ - note tied to previous; . - note dotted; .. - note double dotted
Uncapitalized letters represent notes that are staccato (1/2 duration)
Irregular groupings are notated above the duration line
Duration letters will always appear directly above the note/fret number it represents the
duration for.  Duration letters with no fret number below them represent rests.  Multi-
bar rests are notated in the form Wxn, where n is the number of bars to rest for.  Low
melody durations appear below the staff

Tablature Legend
----------------
 h   - hammer-on
 p   - pull-off
 b   - bend
 pb  - pre-bend
 r   - bend release (if no number after the r, then release immediately)
 /\  - slide into or out of (from/to "nowhere")
 s   - legato slide
 S   - shift slide
  - natural harmonic
[n]  - artificial harmonic
n(n) - tapped harmonic
 ~   - vibrato
 tr  - trill
 T   - tap
 TP  - trem. picking
 PM  - palm muting
\n/  - tremolo bar dip; n = amount to dip
 \n  - tremolo bar down
 n/  - tremolo bar up
/n\  - tremolo bar inverted dip
 =   - hold bend; also acts as connecting device for hammers/pulls
 <>  - volume swell (louder/softer)
 x   - on rhythm slash represents muted slash
 o   - on rhythm slash represents single note slash

Misc Legend
-----------
 |  - bar
||  - double bar
||o - repeat start
o|| - repeat end
*|  - double bar (ending)
 :  - bar (freetime)
 $  - Segno
 &  - Coda
Tempo markers -  = BPM(8/16=s8/s16), where s8 = swing 8ths, s16 = swing 16ths
Добавлено: 16.11.2015
Другие материалы по этой песне:
  • Аккорды и текст

Страница создана 16.11.2015
http://primanota.ru/snow-hank/im-moving-on-chords.htm
Привет, Гость.
Предлагаем пройти революционный курс по гитаре.
Подарок от PrimaNota.Ru, забирай!