PrimaNota.ru - самый крупный в мире бесплатный архив песенных текстов, аккордов, табулатур и нот


Snoop Dogg - Let's Get Blown - текст песни, бас-таба, видео

Регистрация Запомнить меня
Войти через:  Facebook Google Twitter Vk Yandex Mail.ru

Snoop Dogg - Let's Get Blown - текст песни, бас-таба, видео

Печатать
Просмотров: 53
Авторы: Steve Arrington, Pharrell Williams, Chad Hugo, Calvin Broadus

----------------------------------------------------------------------------
                       Let's Get Blown - Snoop Dogg
----------------------------------------------------------------------------
Tabbed by: Chris Raw 

Tuning: Standard     BPM: 106

Repeat throughout song
                                                                       
G|---------------- ---------------- ---------------- ----------------|
D|---------------- ---------------- ---------------- ----------------|
A|---------------- ---------------- ---------------- ----------------|
E|----0---2---3--- 0-------0-----5- ---------------- 5-------3-----2-|

G|---------------- ---------------- ---------------- 4-------4-------|
D|---------------- ---------------- ---------------- ----------------|
A|---------------- --------------2- ------------2--- ----2-----------|
E|---------------- ------------2--- ---------------- ----------------|


| /  slide up
| \  slide down
| h  hammer-on
| p  pull-off
| ~  vibrato
| +  harmonic
| x  Mute note
Добавлено: 17.04.2016
Другие материалы по этой песне:
  • Аккорды и текст

Страница создана 10.04.2012
http://primanota.ru/snoop-dogg/lets-get-blown-chords.htm
Привет, Гость.
Предлагаем пройти революционный курс по гитаре.
Подарок от PrimaNota.Ru, забирай!