PrimaNota.ru - самый крупный в мире бесплатный архив песенных текстов, аккордов, табулатур и нот


Snfu - Kwellada Kid - таба, видео

Регистрация Запомнить меня
Войти через:  Facebook Google Twitter Vk Yandex Mail.ru

Snfu - Kwellada Kid - таба, видео

Печатать
Просмотров: 115
SNFU - Kwellada Kid

intro
e|-----------------------------------|
B|-----------------------------------|
G|-----------------------------------|
D|-7-7-5~------12~------12-----------|
A|-7-7-5~/9-10-----9-10----10-9----9-| x3
D|-7-7-5~-----------------------12---|

e|-----------------------------------|
B|-----------------------------------|
G|-----------------------------------|
D|-7-7-5~------12~------12~~~~~~~~~~-|
A|-7-7-5~/9-10-----9-10--------------|
D|-7-7-5~----------------------------|

-----------------------------------------------------------
verse
          _________________________________________
e|--------------|                                  |
B|--------------|                                  |
G|--------------|                                  |
D|-6------6-----|                                  |
A|-4-7-5~-4-7-5-| x3                               |
D|---7-5~---7-5-|                                  |
                                                   |
e|-------------------|                             |---x4
B|-------------------|                             |
G|-------------------|                             |
D|-------------------| (rest on last playthrough)  |
A|-57777777777777777-|                             |
D|-57777777777777777-|                             |
    ****************                               |
          _________________________________________|

----------------------------------------------------------
chorus

e|--------------|--------------|--------------|------------------|
B|--------------|--------------|--------------|------------------|
G|--------------|--------------|--------------|------------------|
D|--------5-4---|--------5-4---|--------5-4---|------------------|
A|/7-7-5~-3-2-5-|-5-5-3~-3-2-5/|/7-7-5~-3-2-5-|-3333333333333333-|
D|/7-7-5~-----5-|-5-5-3~-----5/|/7-7-5~-----5-|-3333333333333333-|
                                                **** ******* ***

e|--------------|--------------|--------------|------------------|
B|--------------|--------------|--------------|------------------|
G|--------------|--------------|--------------|------------------|
D|--------5-4---|--------5-4---|--------5-4---|------------------|
A|/7-7-5~-3-2-5-|-5-5-3~-3-2-5/|/7-7-5~-3-2-5-|-2222222222222222-|
D|/7-7-5~-----5-|-5-5-3~-----5/|/7-7-5~-----5-|-2222222222222222-|
                                                **** ******* ***-|

----------------------------------------------------------
interlude

e|-----------------------------------|
B|-----------------------------------|
G|-----------------------------------|
D|-7-7-5~------12~------12-----------|
A|-7-7-5~/9-10-----9-10----10-9----9-| x3
D|-7-7-5~-----------------------12---|

e|-----------------------------------|
B|-----------------------------------|
G|-----------------------------------|
D|-7-7-5~------12~------12~~~~~~~~~~-|
A|-7-7-5~/9-10-----9-10--------------|
D|-7-7-5~----------------------------|

-----------------------------------------------------------

verse
chorus

-----------------------------------------------------------
bridge

e|---------------------------|
B|---------------------------|
G|---------------------------|
D|-7-7-5~-555555555555555555-|
A|-7-7-5~-555555555555555555-| x2
D|-7-7-5~-555555555555555555-|
          ******************

e|---------------------------|------------------------------------------|
B|---------------------------|------------------------------------------|
G|---------------------------|------------------------------------------|
D|-5-5-3~-333333333333333333-|-3-3-2~~~~~~~~~~~~~~~~~~~~~~~~~~~~~~~~~~~-|
A|-5-5-3~-333333333333333333-|-3-3-2~~~~~~~~~~~~~~~~~~~~~~~~~~~~~~~~~~~-|
D|-5-5-3~-333333333333333333-|-3-3-2~~~~~~~~~~~~~~~~~~~~~~~~~~~~~~~~~~~-|
          ******************            (drummer should slow down here)


e|----------------|-----------------|
B|----------------|-------------8\7-|
G|-7~-------------|-------------7\7-|
D|-7~-------------|-----------------|
A|-5~-5-5-5-5-5-5-|-5-5-5-5-5-5-----|
D|----------------|-----------------|
      * * * * * *   * * * * * * 

e|----------------|-----------------|
B|----------------|-------------8\7-|
G|----------------|-------------7\7-|
D|-5~-------------|-----------------|
A|-5~-5-5-5-5-5-5-|-5-5-5-5-5-5-----|
D|-5~-5-5-5-5-5-5-|-5-5-5-5-5-5-----|
      * * * * * *   * * * * * * 

e|----------------|-----------------|
B|----------------|-----------------|
G|----------------|-----------------|
D|-2~-------------|-------------5-4-|
A|-2~-2-2-2-2-2-2-|-2-2-2-2-2-2-5-4-|
D|-2~-2-2-2-2-2-2-|-2-2-2-2-2-2-5-4-|
      * * * * * *   * * * * * * 

e|----------------|----------------|
B|----------------|----------------|
G|----------------|----------------|
D|-5~---------5-4-|-7~-7-----------|
A|-5~-5-5-5-5-5-4-|-7~-7-7-7-7-5-4-|
D|-5~-5-5-5-5-5-4-|-7~-7-7-7-7-5-4-|
      * * * *            * * *

-------------------------------------------------------
outro
                  _______________________
e|--------------------------------|      |
B|--------------------------------|      |
G|--------------------------------|      |
D|-4~---5---4---5---4---5---7-5-4-| x3   |
A|----5---5---5---5---5---5-------|      |
D|--------------------------------|      |
                                         |--- x4
e|--------------------------------|      |
B|--------------------------------|      |
G|-4~-----------------------------|      |
D|------7---5-7-5-4~~~~~~---------|      |
A|----5---5---------------5~~~~~~-|      |
D|--------------------------------|      |
                  _______________________|


e|--------------------------------|--------------------------------|
B|--------------------------------|--------------------------------|
G|-7~---6---4-------4-------4-----|-7~---6---4-------4-------------|
D|--------------7-------7-----7---|--------------7-----7-5~~-4-5-4-|
A|----5---5---5---5---5---5-----5-|----5---5---5---5---------------|
D|--------------------------------|--------------------------------|

Добавлено: 10.08.2015
Другие материалы по этой песне:
  • Аккорды и текст

Страница создана 10.08.2015
http://primanota.ru/snfu/kwellada-kid-chords.htm
Привет, Гость.
Предлагаем пройти революционный курс по гитаре.
Подарок от PrimaNota.Ru, забирай!