PrimaNota.ru - самый крупный в мире бесплатный архив песенных текстов, аккордов, табулатур и нот


Snarky Puppy - Shofukan - бас-таба, видео

Регистрация Запомнить меня
Войти через:  Facebook Google Twitter Vk Yandex Mail.ru

Snarky Puppy - Shofukan - бас-таба, видео

Печатать
Просмотров: 88
-------------------------------------------------------------------------------
                             Shofukan - Snarky Puppy
-------------------------------------------------------------------------------
Tabbed by: stanton119
E-mail: stanton1191@gmail.com
Web: http://www.richard-stanton.com

Source: https://www.youtube.com/watch?v=kk0WRHV_vt8
Tuning: Standard
Key:    Bmin


G|--------------------------|4-------------------------|--------------------------|
D|--------------------------|--------------------------|--------------------------|
A|2-----3-----5------3------|-----2--------------------|2-----3-----5------3------|
E|--------------------------|-------------5==========--|--------------------------|

Verse
G|-4-----4--------2----2-----|---------------------|
D|-----4----4--------2---2---|---------------------|
A|------------2------------0-|---------------------|  x 2
E|---------------------------|-0--2-3------0--2-3--|

G|------3--------------------|------3-------------------
D|----3----3-----------2-----|----3----3----------------
A|-1---------1----0--3---3-0-|-1---------1--------------
E|---------------------------|----------------3----5----

Chorus
 |                     |1+3------------| 2+---------
G|---------------------|---------------|---------------|
D|--------------0-2----|--2-------2----|---------------|
A|-2-2--0-2-2-0--------|---------------|--33-----33--3-| x 4
E|---------------------|---0-------0-0-|---------------|

E===========

Guitar line x 2 (break)

                G|-9--9-9/11-\8-8-8-    |--------------------
                D|------------------    |-10--10-10/12--\9---
                A|------------------ x 3|-------------------- x 1
                E|------------------    |--------------------


Trumpet Solo
Pattern:
G|---------------|
D|------------7--|
A|---7---77--7---|
E|5---5----5-----|

Over the following chords:
Am Am B7 B7 x 4

G|---------------|-----------------|
D|---------------|-----------------|
A|---------------|------3---2------|
E|-------5-5-0---|--3-5---5---5-0--|

B7 B7
Am Am

Intro riff
B C D C x 6
B A D C
B C G F#

Bridge (first time an octave up)
E    A  B  C  A   F# (B) x 2

Outro
G|-------------------------------------------------------
D|------------------------7-7---7------------------------
A|--------9-9---9-5-5---5---------7-7--7-9-9-------------
E|7-7---7------------------------------------7-7---------

G|----------------------------------------------------------------
D|------------------------7-7---7------------------10-12-10-------
A|--------9-9---9-5-5---5---------8-8--8-10-10--------------12----
E|7-7---7--------------------------------------10-------------10--

x 4

Drum break

Outro x 1

G|----------------------------------|-------------------------|
D|9-12---9--------------------------|-------------------------|
A|-----11--12---9-----9--------2---2|----2-5-2-------2---2====|
E|----------------7-10--7-10-----2--|0-0-------2-0-2----------|

Outro part 2

===============================================================================
Добавлено: 07.10.2015
Другие материалы по этой песне:

Страница создана 11.08.2015
http://primanota.ru/snarky-puppy/shofukan-chords.htm
Привет, Гость.
Предлагаем пройти революционный курс по гитаре.
Подарок от PrimaNota.Ru, забирай!