PrimaNota.ru - самый крупный в мире бесплатный архив песенных текстов, аккордов, табулатур и нот


Snarky Puppy - Quarter Master - бас-таба, видео

Регистрация Запомнить меня
Войти через:  Facebook Google Twitter Vk Yandex Mail.ru

Snarky Puppy - Quarter Master - бас-таба, видео

Печатать
Просмотров: 162
-------------------------------------------------------------------------------
                             Quarter Master - Snarky Puppy
-------------------------------------------------------------------------------
Tabbed by: stanton119
E-mail: stanton1191@gmail.com
Web: http://www.richard-stanton.com

Source: https://www.youtube.com/watch?v=vE2zx4lr-h8
Tuning: Standard
Key:    Dmin

Intro
                                     (2nd time)
G|---5---7-5-------------------------|---12/10|-------
D|-7---7-----7-----------3-5-6/7-----|--------|-3-----
A|-------------5-----3/5-------------|--------|-----5-
E|-----------------------------------|--------|-------

Verse (Basic pattern)
G|-----------------------|-----
D|-----------------------|-3---
A|-------------5--3--5---|----5
E|--1-3-4/5--------------|-----

G|-----------------------|
D|-----------------------|
A|-------------5--3--5---|
E|--1-3-4/5--------------|

Pre-chorus
CCC BBB BbBbBb AAA x 2
F#F#F# BBB BbBbBb AAA
CCC BBB Bb ---- EEE

Chorus:
                           (1-3rd times)   (4th time)
G|----------------------------------|     |--------------------
D|-3-4-5-3--------------------------| x 4 |--------------------
A|----------5--3-----5--------------|     |-------------------5
E|----------------5---------4---3---|     |--4-3---2-1--555----

Solos:
G|---------------------|
D|---------------------|
A|-----------5--3--5---| x many
E|--1-3-4/5------------|

G x many AAAAA

G|---------------------|
D|---------------------|
A|---5--3--5-----------| x many
E|-----------1-3-4/5---|

Chorus:
G|----------------------------------|--------------------
D|-3-4-5-3--------------------------|--------------------
A|----------5--3-----5--------------|-------------------5
E|----------------5---------4---3---|--4-3---2-1--555----


Breakdown:
Break
D Bm A C#
C C G# Gm
F# F# G# G
F#m Bm E A D D

G G F F
D D G# Gm
F# F# G#
G F#m Bm x 3
C F# Bm E A

Build
F# G G# A x 4
G|------------------|
D|------------------|
A|-5--5-5--00-3-5-3-| x many
E|------------------|

Piano solo
break D G# A
Dm (along the lines of:)
G|---------------------|
D|---------------------|
A|---5--3--5-----------| x many
E|-----------1-3-4/5---|

Chorus x 1:
G|------------------------------------------
D|-3-4-5-3----------------------------------
A|----------5--3-----5----------------------
E|----------------5---------4-3---2-1-hold-1
Добавлено: 11.08.2015
Другие материалы по этой песне:
  • Аккорды и текст

Страница создана 11.08.2015
http://primanota.ru/snarky-puppy/quarter-master-chords.htm
Привет, Гость.
Предлагаем пройти революционный курс по гитаре.
Подарок от PrimaNota.Ru, забирай!