PrimaNota.ru - самый крупный в мире бесплатный архив песенных текстов, аккордов, табулатур и нот


Snarky Puppy - Lingus - таба, бас-таба, видео

Регистрация Запомнить меня
Войти через:  Facebook Google Twitter Vk Yandex Mail.ru

Snarky Puppy - Lingus - таба, бас-таба, видео

Печатать
Просмотров: 257
-------------------------------------------------------------------------------
                             Lingus - Snarky Puppy
-------------------------------------------------------------------------------
Tabbed by:flyingmadpakke
E-mail:Mmagnus.bahn.berger@gmail.com

I don't know the band at all, i just heard this song today and immediately thought:
"I want to play that sexy guitar!". I just heard it on youtube and played along, so
it's probably not 100% accurate but i think it sounds cool.
A lot of the song is also missing, so if anyone wants to complete it or correct it feel free!
...But plzz email me if you do so, because i want to see the changes ;)
Tuning: Standard guitar tuning (440 hertz/A)

e|----------------12-----------------------------------------------------------|
B|-------------------15-12--12--------------------15p---12---------------------|
G|--------12--14----------------14--b14---14--14------------14p---12--12p---11-|
D|----14-----------------------------------------------------------------------|
A|-----------------------------------------------------------------------------|
E|-----------------------------------------------------------------------------|

e|----------------------------------------------------------------------------|
B|----------------------------------------------------------------------------|
G|------------------------14p-12----------------------------------12----------|
D|--12---12-------12--14----------14---14p-13p-12---12---12---14------14------|
A|------------14--------------------------------------------------------------|
E|----------------------------------------------------------------------------|

e|----------------------------------------------------------------------------|
B|----------------------------------------------------------------------------|
G|----------------------------------------------------------------------------|
D|--14p-12--------------------------------------------------------------------|
A|---------14--12\--10--------------------------------------------------------|
E|----------------------------------------------------------------------------|

End on either E or e |-----12---12--------------------------------------------|
************************************
| \   slide down
| p   pull-off
************************************

Добавлено: 05.10.2014
Другие материалы по этой песне:
  • Аккорды и текст

Страница создана 05.10.2014
http://primanota.ru/snarky-puppy/lingus-chords.htm
Привет, Гость.
Предлагаем пройти революционный курс по гитаре.
Подарок от PrimaNota.Ru, забирай!