PrimaNota.ru - самый крупный в мире бесплатный архив песенных текстов, аккордов, табулатур и нот


Snarky Puppy - Flood - таба, видео

Регистрация Запомнить меня
Войти через:  Facebook Google Twitter Vk Yandex Mail.ru

Snarky Puppy - Flood - таба, видео

Печатать
Просмотров: 60
-------------------------------------------------------------------------------
                             WHAT ABOUT ME? - Snarky Puppy
-------------------------------------------------------------------------------
Tabbed by: firebowl99

Tuning: Standard

Listen very closely for lining up rhythms. 1st section (verse) is in 7/4 and the 2nd more open, spacey part is
in 5/4 or 5/8 depending on how you count it. Have fun!

Verse in 7/4 (0:20)
e|----------------------------4---------4----------|
B|--------------------------5---5-5-5-5---5-5-5----|
G|-8--9--8-8-8-8--9--8-8-8--6---6-6-6-6---6-6-6----|
D|-6-----6-6-6-6-----6-6-6--7---7-7-7-7---7-7-7----|
A|-9-----9-9-9-9-----9-9-9-------------------------|
E|-------------------------------------------------|

e|----------------------------4---------4----------|
B|--------------------------5---5-5-5-5---5-5-5----|
G|-8--9--8-8-8-8--9--8-8-8--6---6-6-6-6---6-6-6----|
D|-6-----6-6-6-6-----6-6-6--7---7-7-7-7---7-7-7----|
A|-9-----9-9-9-9-----9-9-9-------------------------|
E|-------------------------------------------------|

Horns in (0:38)
e|----------------------------4---------4----------|
B|--------------------------5---5-5-5-5---5-5-5----|
G|-8--9--8-8-8-8--9--8-8-8--6---6-6-6-6---6-6-6----|
D|-6-----6-6-6-6-----6-6-6--7---7-7-7-7---7-7-7----|
A|-9-----9-9-9-9-----9-9-9-------------------------|
E|-------------------------------------------------|

e|----------------------------4--------------------------|
B|--------------------------5---5-5-5-5------------------|
G|-8--9--8-8-8-8--9--8-8-8--6---6-6-6-6-----------4--6---|
D|-6-----6-6-6-6-----6-6-6--7---7-7-7-7---4---7----------|
A|-9-----9-9-9-9-----9-9-9-------------------------------|
E|-------------------------------------------------------|

e|----------------------------4---------4----------|
B|--------------------------5---5-5-5-5---5-5-5----|
G|-8--9--8-8-8-8--9--8-8-8--6---6-6-6-6---6-6-6----|
D|-6-----6-6-6-6-----6-6-6--7---7-7-7-7---7-7-7----|
A|-9-----9-9-9-9-----9-9-9-------------------------|
E|-------------------------------------------------|

e|----------------------------4--------------------------|
B|--------------------------5---5-5-5-5------------------|
G|-8--9--8-8-8-8--9--8-8-8--6---6-6-6-6------------------|
D|-6-----6-6-6-6-----6-6-6--7---7-7-7-7-----------4--6---|
A|-9-----9-9-9-9-----9-9-9----------------4---7----------|
E|-------------------------------------------------------|

Rhythm Section Jam Vamp (1:09)
e|----------------------------4---------4----------|
B|--------------------------5---5-5-5-5---5-5-5----|
G|-8--9--8-8-8-8--9--8-8-8--6---6-6-6-6---6-6-6----|
D|-6-----6-6-6-6-----6-6-6--7---7-7-7-7---7-7-7----|
A|-9-----9-9-9-9-----9-9-9-------------------------|
E|-------------------------------------------------|

e|----------------------------4---------4----------|
B|--------------------------5---5-5-5-5---5-5-5----|
G|-8--9--8-8-8-8--9--8-8-8--6---6-6-6-6---6-6-6----|
D|-6-----6-6-6-6-----6-6-6--7---7-7-7-7---7-7-7----|
A|-9-----9-9-9-9-----9-9-9-------------------------|
E|-------------------------------------------------|

Horns back in (1:24)
e|----------------------------4---------4----------|
B|--------------------------5---5-5-5-5---5-5-5----|
G|-8--9--8-8-8-8--9--8-8-8--6---6-6-6-6---6-6-6----|
D|-6-----6-6-6-6-----6-6-6--7---7-7-7-7---7-7-7----|
A|-9-----9-9-9-9-----9-9-9-------------------------|
E|-------------------------------------------------|

e|----------------------------4--------------------------|
B|--------------------------5---5-5-5-5------------------|
G|-8--9--8-8-8-8--9--8-8-8--6---6-6-6-6-----------4--6---|
D|-6-----6-6-6-6-----6-6-6--7---7-7-7-7---4---7----------|
A|-9-----9-9-9-9-----9-9-9-------------------------------|
E|-------------------------------------------------------|

e|----------------------------4---------4----------|
B|--------------------------5---5-5-5-5---5-5-5----|
G|-8--9--8-8-8-8--9--8-8-8--6---6-6-6-6---6-6-6----|
D|-6-----6-6-6-6-----6-6-6--7---7-7-7-7---7-7-7----|
A|-9-----9-9-9-9-----9-9-9-------------------------|
E|-------------------------------------------------|

e|----------------------------4--------------------------|
B|--------------------------5---5-5-5-5------------------|
G|-8--9--8-8-8-8--9--8-8-8--6---6-6-6-6------------------|
D|-6-----6-6-6-6-----6-6-6--7---7-7-7-7-----------4--6---|
A|-9-----9-9-9-9-----9-9-9----------------4---7----------|
E|-------------------------------------------------------|

Slow spacey part in 5/8 (1:57)
e|------11-------11--------11------11-------12-------12-------12-------12--|
B|-------------------------------------------------------------------------|
G|-11-13----11-13----11-13----11-13----12-14----12-14----12-14----12-14----|
D|-------------------------------------------------------------------------|
A|-------------------------------------------------------------------------|
E|-------------------------------------------------------------------------|

Horns in (2:08)
e|------11-------11--------11------11-------12-------12-------12-------12--|
B|-------------------------------------------------------------------------|
G|-11-13----11-13----11-13----11-13----12-14----12-14----12-14----12-14----|
D|-------------------------------------------------------------------------|
A|-------------------------------------------------------------------------|
E|-------------------------------------------------------------------------|

e|------11-------11--------11------11-------12-------12-------12-------12--|
B|-------------------------------------------------------------------------|
G|-11-13----11-13----11-13----11-13----12-14----12-14----12-14----12-14----|
D|-------------------------------------------------------------------------|
A|-------------------------------------------------------------------------|
E|-------------------------------------------------------------------------|

e|------11-------11--------11------11-------12-------12-------12-------12--|
B|-------------------------------------------------------------------------|
G|-11-13----11-13----11-13----11-13----12-14----12-14----12-14----12-14----|
D|-------------------------------------------------------------------------|
A|-------------------------------------------------------------------------|
E|-------------------------------------------------------------------------|

e|------11-------11--------11------11-------12-------12-------12-------12--|
B|-------------------------------------------------------------------------|
G|-11-13----11-13----11-13----11-13----12-14----12-14----12-14----12-14----|
D|-------------------------------------------------------------------------|
A|-------------------------------------------------------------------------|
E|-------------------------------------------------------------------------|

Back to 7/4 verse (2:52)
e|----------------------------4---------4----------|
B|--------------------------5---5-5-5-5---5-5-5----|
G|-8--9--8-8-8-8--9--8-8-8--6---6-6-6-6---6-6-6----|
D|-6-----6-6-6-6-----6-6-6--7---7-7-7-7---7-7-7----|
A|-9-----9-9-9-9-----9-9-9-------------------------|
E|-------------------------------------------------|

e|----------------------------4--------------------------|
B|--------------------------5---5-5-5-5------------------|
G|-8--9--8-8-8-8--9--8-8-8--6---6-6-6-6-----------4--6---|
D|-6-----6-6-6-6-----6-6-6--7---7-7-7-7---4---7----------|
A|-9-----9-9-9-9-----9-9-9-------------------------------|
E|-------------------------------------------------------|

e|----------------------------4---------4----------|
B|--------------------------5---5-5-5-5---5-5-5----|
G|-8--9--8-8-8-8--9--8-8-8--6---6-6-6-6---6-6-6----|
D|-6-----6-6-6-6-----6-6-6--7---7-7-7-7---7-7-7----|
A|-9-----9-9-9-9-----9-9-9-------------------------|
E|-------------------------------------------------|

e|----------------------------4--------------------------|
B|--------------------------5---5-5-5-5------------------|
G|-8--9--8-8-8-8--9--8-8-8--6---6-6-6-6------------------|
D|-6-----6-6-6-6-----6-6-6--7---7-7-7-7-----------4--6---|
A|-9-----9-9-9-9-----9-9-9----------------4---7----------|
E|-------------------------------------------------------|

Keyboard solo (3:21) 
*Repeat 8 times, make funky rhythmic alterations
e|----------------------------4---------4----------|
B|--------------------------5---5-5-5-5---5-5-5----|
G|-8--9--8-8-8-8--9--8-8-8--6---6-6-6-6---6-6-6----|
D|-6-----6-6-6-6-----6-6-6--7---7-7-7-7---7-7-7----|
A|-9-----9-9-9-9-----9-9-9-------------------------|
E|-------------------------------------------------|

Back to 5/8 spacey, riff is a little different this time (4:23)
e|------11-------11--------11------11-------12-------12-------12-------12--|
B|-------------------------------------------------------------------------|
G|-11-13----11-13----11-13----11-13----12-14----12-14----12-14----12-14----|
D|-------------------------------------------------------------------------|
A|-------------------------------------------------------------------------|
E|-------------------------------------------------------------------------|

e|------11-------11--------11------11-------11-------11-------11-------11--|
B|-------------------------------------------------------------------------|
G|-12-13----12-13----12-13----12-13----11-13----11-13----11-13----11-13----|
D|-------------------------------------------------------------------------|
A|-------------------------------------------------------------------------|
E|-------------------------------------------------------------------------|

e|------12-------12--------12------12-------11-------11-------11-------11--|
B|-------------------------------------------------------------------------|
G|-12-14----12-14----12-14----12-14----12-13----12-13----12-13----12-13----|
D|-------------------------------------------------------------------------|
A|-------------------------------------------------------------------------|
E|-------------------------------------------------------------------------|

e|------11-------11--------11------11-------12-------12-------12-------12--|
B|-------------------------------------------------------------------------|
G|-11-13----11-13----11-13----11-13----12-14----12-14----12-14----12-14----|
D|-------------------------------------------------------------------------|
A|-------------------------------------------------------------------------|
E|-------------------------------------------------------------------------|

e|------11-------11--------11------11-------11-------11-------11-------11--|
B|-------------------------------------------------------------------------|
G|-12-13----12-13----12-13----12-13----11-13----11-13----11-13----11-13----|
D|-------------------------------------------------------------------------|
A|-------------------------------------------------------------------------|
E|-------------------------------------------------------------------------|

e|------12-------12--------12------12-------11-------11-------11-------11--|
B|-------------------------------------------------------------------------|
G|-12-14----12-14----12-14----12-14----12-13----12-13----12-13----12-13----|
D|-------------------------------------------------------------------------|
A|-------------------------------------------------------------------------|
E|-------------------------------------------------------------------------|

e|------11-------11--------11------11-------12-------12-------12-------12--|
B|-------------------------------------------------------------------------|
G|-11-13----11-13----11-13----11-13----12-14----12-14----12-14----12-14----|
D|-------------------------------------------------------------------------|
A|-------------------------------------------------------------------------|
E|-------------------------------------------------------------------------|

e|------11-------11--------11------11-------11-------11-------11-------11--|
B|-------------------------------------------------------------------------|
G|-12-13----12-13----12-13----12-13----11-13----11-13----11-13----11-13----|
D|-------------------------------------------------------------------------|
A|-------------------------------------------------------------------------|
E|-------------------------------------------------------------------------|

e|------12-------12--------12------12-------11-------11-------11-------11--|
B|-------------------------------------------------------------------------|
G|-12-14----12-14----12-14----12-14----12-13----12-13----12-13----12-13----|
D|-------------------------------------------------------------------------|
A|-------------------------------------------------------------------------|
E|-------------------------------------------------------------------------|

(6:01) Loud and wild
e|------11-------11--------11------11-------12-------12-------12-------12--|
B|-------------------------------------------------------------------------|
G|-11-13----11-13----11-13----11-13----12-14----12-14----12-14----12-14----|
D|-------------------------------------------------------------------------|
A|-------------------------------------------------------------------------|
E|-------------------------------------------------------------------------|

e|------11-------11--------11------11-------11-------11-------11-------11--|
B|-------------------------------------------------------------------------|
G|-12-13----12-13----12-13----12-13----11-13----11-13----11-13----11-13----|
D|-------------------------------------------------------------------------|
A|-------------------------------------------------------------------------|
E|-------------------------------------------------------------------------|

e|------12-------12--------12------12-------11-------11-------11-------11--|
B|-------------------------------------------------------------------------|
G|-12-14----12-14----12-14----12-14----12-13----12-13----12-13----12-13----|
D|-------------------------------------------------------------------------|
A|-------------------------------------------------------------------------|
E|-------------------------------------------------------------------------|

e|------11-------11--------11------11-------11-------11-------11-------11--|
B|-------------------------------------------------------------------------|
G|-12-13----12-13----12-13----12-13----12-13----12-13----12-13----12-13----|
D|-------------------------------------------------------------------------|
A|-------------------------------------------------------------------------|
E|-------------------------------------------------------------------------|

Distorted (6:43)
e|------11-------11--------11------11-------11-------11-------11-------11--|
B|-------------------------------------------------------------------------|
G|-11-13----12-13----11-13----12-13----11-13----12-13----11-13----12-13----|
D|-------------------------------------------------------------------------|
A|-------------------------------------------------------------------------|
E|-------------------------------------------------------------------------|

e|------11-------11--------11------11-------11-------11-------11-------11--|
B|-------------------------------------------------------------------------|
G|-11-13----12-13----11-13----12-13----11-13----12-13----11-13----12-13----|
D|-------------------------------------------------------------------------|
A|-------------------------------------------------------------------------|
E|-------------------------------------------------------------------------|

(7:04) Horns out
e|------11-------11--------11------11-------11-------11-------11-------11--|
B|-------------------------------------------------------------------------|
G|-11-13----12-13----11-13----12-13----11-13----12-13----11-13----12-13----|
D|-------------------------------------------------------------------------|
A|-------------------------------------------------------------------------|
E|-------------------------------------------------------------------------|

Guitar tacet (7:14-7:16)

(7:17) Guitar back in
e|------11-------11--------11------11-------11-------11--------------------|
B|-------------------------------------------------------------------------|
G|-11-13----12-13----11-13----12-13----11-13----12-13----------------------|
D|-------------------------------------------------------------------------|
A|-------------------------------------------------------------------------|
E|-------------------------------------------------------------------------|

Jam Ending:
Emaj7 - Abmaj7

Добавлено: 01.05.2016
Другие материалы по этой песне:
  • Аккорды и текст

Страница создана 01.05.2016
http://primanota.ru/snarky-puppy/flood-chords.htm
Привет, Гость.
Предлагаем пройти революционный курс по гитаре.
Подарок от PrimaNota.Ru, забирай!