PrimaNota.ru - самый крупный в мире бесплатный архив песенных текстов, аккордов, табулатур и нот


Snarky Puppy - The Clearing - таба, видео

Регистрация Запомнить меня
Войти через:  Facebook Google Twitter Vk Yandex Mail.ru

Snarky Puppy - The Clearing - таба, видео

Печатать
Просмотров: 83
-------------------------------------------------------------------------------
                             The Clearing - Snarky Puppy
-------------------------------------------------------------------------------
Tabbed by: Bas Maartense

This is most likely the way to play the Lanzetti intro part.
If there are positive responses to this tab I will definitely consider making a tab of the whole song, except
for the guitar solo's.
O by the way this is my first tab so I really hope you like it!

Tuning: Standard
Amin(b6)
e|-------------0-----------------------0--------------|
B|----------6-----6-----------------6-----6-----------|
G|-------5-----------5-----------5-----------5--------|
D|----7-----------------7-----7-----------------7-----|
A|-0-----------------------0--------------------------|
E|----------------------------------------------------|
B11(b9)
e|-------------0-----------------------0--------------|
B|----------7-----7-----------------7-----7-----------|
G|-------5-----------5-----------5-----------5--------|
D|----7-----------------7-----7-----------------7-----|
A|----------------------------------------------------|
E|-7-----------------------7--------------------------|
Amin6/E
e|-------------0-----------------------0--------------|
B|----------7-----7-----------------7-----7-----------|
G|-------5-----------5-----------5-----------5--------|
D|----7-----------------7-----7-----------------7-----|
A|----------------------------------------------------|
E|-0-----------------------0--------------------------|
Eadd9
e|-------------0-----------------------0--------------|
B|----------7-----7-----------------7-----7-----------|
G|-------4-----------4-----------4-----------4--------|
D|----6-----------------6-----6-----------------6-----|
A|----------------------------------------------------|
E|-0-----------------------0--------------------------|
F#7(b9)/Bb
e|-------------0-----------------------0--------------|
B|----------7-----7-----------------7-----7-----------|
G|-------6-----------6-----------6-----------6--------|
D|----5-----------------5-----5-----------------5-----|
A|----------------------------------------------------|
E|-6-----------------------6-----------------------6--|
A6
e|-------------0-----------------------0--------------|
B|----------7-----7-----------------7-----7-----------|
G|-------6-----------6-----------6-----------6--------|
D|----7-----------------7-----7-----------------7-----|
A|-0-----------------------0--------------------------|
E|----------------------------------------------------|
Gmaj6/7
e|-------------0-----------------------0--------------|
B|----------7-----7-----------------7-----7-----------|
G|-------4-----------4-----------4-----------4--------|
D|----5-----------------5-----5-----------------5-----|
A|----------------------------------------------------|
E|-3-----------------------3--------------------------|
F#add4
e|----------------------------------------------------|
B|-------------0-----------0-----------0--------------|
G|----------3-----3-----------3-----------3-----------|
D|-------4-----------4-----------4-----------4--------|
A|----4-----------------4-----------4-----------4-----|
E|-2--------------------------------------------------|
Bminadd11 (to play this relatively comfortably, play the low E with your thumb.)
e|-------------0-----------------------0--------------|
B|----------7-----7-----------------7-----7-----------|
G|-------7-----------7-----------7-----------7--------|
D|----9-----------------9-----9-----------------9-----|
A|----------------------------------------------------|
E|-7-----------------------7--------------------------|
F#7(b9) If anyone has found a comfortable way of playing this chord, please react.
e|-------------0-----------------------0--------------|
B|----------8-----8-----------------8-----8-----------|
G|-------6-----------6-----------6-----------6--------|
D|----8-----------------8-----8-----------------8-----|
A|-9-----------------------9-----------------------9--|
E|----------------------------------------------------|
Not 100% sure if this is correct.
e|----------------------------------------------------|
B|----------------------------------------------------|
G|-9----6---------------------------------------------|
D|-10---7----7----3-----------------------------------|
A|-10---7----8----3-----------------------------------|
E|-8----5----8----1-----------------------------------|

e|----------------------------------------------------|
B|----------------------------------------------------|
G|----------0--0--------------------------------------|
D|-------2--------2/3--3--2---------------------------|
A|----2-----------------------------------------------|
E|-0-------------------------0------------------------|

Repeat all of this playing the last sentence three times and that is the intro.

************************************

| /   slide up
| \   slide down
| h   hammer-on
| p   pull-off
| ~   vibrato
| +   harmonic
| x   Mute note
| b   Bend
| pb  Pre-bend
| br  Bend release
| pbr Pre-bend release
| brb Bend release bend

************************************
Добавлено: 07.10.2015
Другие материалы по этой песне:
  • Аккорды и текст

Страница создана 07.10.2015
http://primanota.ru/snarky-puppy/clearing-chords.htm
Привет, Гость.
Предлагаем пройти революционный курс по гитаре.
Подарок от PrimaNota.Ru, забирай!