PrimaNota.ru - самый крупный в мире бесплатный архив песенных текстов, аккордов, табулатур и нот


Snarky Puppy - Brother Im Hungry - таба, видео

Регистрация Запомнить меня
Войти через:  Facebook Google Twitter Vk Yandex Mail.ru

Snarky Puppy - Brother Im Hungry - таба, видео

Печатать
Просмотров: 47
Уроки эстрадного вокала в Санкт-Петербурге
-------------------------------------------------------------------------------
                             SONG NAME - Band Name
-------------------------------------------------------------------------------
Tabbed by: Meticulous
E-mail:

This is just the intro to the song "Brother, I'm Hungry (feat. Nigel Hall & NOLA International)" off Snarky
Puppy's new album Family Dinner Vol.2 


Tuning: Standard


   F#m7   G#m7            A9sus  A#dim  Bm7       Bm7                   Bm7   C#m7     Bm
e|----------------------------------------------------------9----12s9---7h9---9h12-----7h9---7-------------|
B|-2-3----4-5---5s7--------3-----5-----7-----------10h12----------------7-----9--------(7)--------10--7----|
G|-2------4----------------4-----6-----7-----------11-------------------7-----9--------(7)-----------------|
D|-2------4----------------5-----5-----7-----------9--------------------7-----9----------------------------|
A|---------------------------------------------------------------------------------------------------------|
E|-2------4----------------5-----6-----7-------------------------------------------------------------------|

                G#m7b5         Em9                 A9sus              A
e|--------------7h9--7----------------------------------------------(10)----10---(5)---5-------------------|
B|-------------(7)---------------------(7)---------------(3)---------10h12--10----5h7--5-------------------|
G|-------------(7)------------------(7)---------------(4)------------------------------------4--2----------|
D|-9-8-7--(6)--------------------(5)---------------(5)----------------------------------------------4------|
A|-----------------------------(7)-------------------------------------------------------------------------|
E|--------------------------------------------0s(5)--------------------------------------------------------|

Добавлено: 20.11.2017
Вам также может быть интересно:
Другие материалы по этой песне:
  • Аккорды и текст

Страница создана 20.11.2017
http://primanota.ru/snarky-puppy/brother-im-hungry-chords.htm
Привет, Гость.
Предлагаем пройти революционный курс по гитаре.
Подарок от PrimaNota.Ru, забирай!