PrimaNota.ru - самый крупный в мире бесплатный архив песенных текстов, аккордов, табулатур и нот


Snapcase - Typecast Modulator - текст песни, таба, видео

Регистрация Запомнить меня
Войти через:  Facebook Google Twitter Vk Yandex Mail.ru

Snapcase - Typecast Modulator - текст песни, таба, видео

Печатать
Просмотров: 72
Band: 		Snapcase
Song: 		Typecast modulator
Album:		Designs for automotion
Tabbed by:	Frank van der Walle (voorderotzooi@hotmail.com)

[Drop d]


intro

e----------
b----------
g----------
d----------
a-9-5-5-5--
d-9-5-5-5--  (4x)   (Very fast)



verse (4x)

e------------------		   e-----------------------------
b------------------		   b-----------------------------
g------------------		   g-----------------------------
d-7h9-9-9-9-7-7-7--		   d-7h9-9-9-9-7-7-7-7-10-10-10--
a-7h9-9-9-9-7-7-7--	 than the  a-7h9-9-9-9-7-5-5-5-10-10-10--
d-7h9-9-9-9-7-7-7-- 2x 	 3rd time  d-7h9-9-9-9-7-5-5-5-10-10-10--



chorus (4x)

e------9--
b------9--
g------9--
d-9----9--
a-9----0--
d-9----0--



verse 2 (4x)

e----------------------------------------
b----------------------------------------
g----------------------------------------
d-------------5-9-9-9-5-5-5-9-9-9-5-5-5--
a-9-9--12-12--5-9-9-9-5-5-5-9-9-9-5-5-5--
d-9-9--12-12--5-9-9-9-5-5-5-9-9-9-5-5-5--



bridge (4x)

e-----x--x--x--x--x--x------x-x-x-x-x-x
b-----12-12-12-12-12-12-----8-8-8-7-7-7
g-----x--x--x--x--x--x------x-x-x-x-x-x
d-9-9-9--9--9--9--9--9--5-5-5-5-5-5-5-5
a-9-9-9--9--9--9--9--9--5-5-5-5-5-5-5-5
d-9-9-9--9--9--9--9--9--5-5-5-5-5-5-5-5



after the bridge, you get verse 2 four times
But the last time you play this:

verse 2'

e----------------------------------------------------------------
b----------------------------------------------------------------
g----------------------------------------------------------------
d-------------5-9-9-9-5-5-5-9-9-9-5-5-5-9-9-9-5-5-5-9-9-9-5-5-5--
a-9-9--12-12--5-9-9-9-5-5-5-9-9-9-5-5-5-9-9-9-5-5-5-9-9-9-5-5-5--
d-9-9--12-12--5-9-9-9-5-5-5-9-9-9-5-5-5-9-9-9-5-5-5-9-9-9-5-5-5--



intro
verse 	(4x)
chorus 	(4x)
verse 	(4x)
chorus  (4x)
verse 2 (4x)
bridge	(4x)
verse 2 (3x)
verse 2'(1x)
verse	(4x)
verse 2 (3x)
verse 2'(1x)

That's it. If you have any suggestions, just mail me.
     
Добавлено: 04.11.2013
Другие материалы по этой песне:

Страница создана 06.07.2012
http://primanota.ru/snapcase/typecast-modulator-chords.htm
Привет, Гость.
Предлагаем пройти революционный курс по гитаре.
Подарок от PrimaNota.Ru, забирай!