PrimaNota.ru - самый крупный в мире бесплатный архив песенных текстов, аккордов, табулатур и нот


Snapcase - Caboose - аккорды и текст, таба, бас-таба, драм-таба, видео

Регистрация Запомнить меня
Войти через:  Facebook Google Twitter Vk Yandex Mail.ru

Snapcase - Caboose - аккорды и текст, таба, бас-таба, драм-таба, видео

Печатать
Просмотров: 229
Уроки эстрадного вокала в Санкт-Петербурге
Caboose
Snapcase
                        SNAPCASE-CABOOSE

      I am Predrag Todorovic from Bosnia and Hercegovina.This is my tab for
      Snapcase's song Caboose.I really like Snapcase,so I decided to do this 
      tab.I think  it's right,but if someone have another idea,please 
      E-mail me at zikom@rstel.net .Any corrections are welcome.

      Dropped D-tunning (DADGBE)
    

      Intro                              3 times  then
      (gtr.1)
        pm...     pm...     pm...      pm...         pm...   let ring
      
      E-------------------------------------------|-----------------------
      B-------------------------------------------|-----------------------
      G-------------------------------------------|-----------------------
      D-6-6-0-----6-6-0-----6-6-0------3-3-3-3-0--|--3-3-3-0-6------------
      A-6-6-0-----6-6-0-----6-6-0------3-3-3-3-0--|--3-3-3-0-6------------
      D-6-6-0-----6-6-0-----6-6-0------3-3-3-3-0--|--3-3-3-0-6------------
      (gtr.2)
      |------------------------------------------------------------------|
      |------------------------------------------------------------------|
      |------7---------7--------7------3-3-3-3-0-------------------------|
      |------6---------6--------6------3-3-3-3-0-------------------------|
      |-5h8p5--5-5h8p5--5-5h8p5--5-----3-3-3-3-0-------------------------|
      |--------------------------------3-3-3-3-0-------------------------|


      VERSE 1
             pm...      4 times both guitars
      |------------------------------------------------------------------|
      |------------------------------------------------------------------|
      |------------------------------------------------------------------|
      |-3-3-x-x-x-x-x-6s5-3s5--------------------------------------------|
      |-3-3-x-x-x-x-x-6s5-3s5--------------------------------------------|
      |-3-3-x-x-x-x-x-6s5-3s5--------------------------------------------|

         Then guitar 2 comes with this:
         natural harmonics
      |------------------------------------------------------------------|
      |------------------------------------------------------------------|
      |------------------------------------------------------------------|
      |----9----9----9----9----------------------------------------------|
      |-9-9--9-9--9-9--9-9-----------------------------------------------|
      |------------------------------------------------------------------|

       
       VERSE 2    Both guitars

      |------------------------------------------------------------------|
      |------------------------------------------------------------------|
      |------------------------------------------------------------------|
      |-6-6--6-6--6-6---6--6--6--6--6------------------------------------|
      |-6-6--6-6--6-6---6--6--6--6--6------------------------------------|
      |-6-6--6-6--6-6---6--6--6--6--6---3b(4)--0b(1)---------------------|
 

       VERSE 3    Both guitars                          only one

      |----------------------------------------------|-------------------|
      |----------------------------------------------|-------------------|
      |----------------------------------------------|-------------------|
      |-3--3--3-----3--3--3-----3--3--3-----3--3--3--|-------------------|
      |-3--3--3-----3--3--3-----3--3--3-----3--3--3--|-------------------|
      |-3--3--3-----3--3--3-----3--3--3-----3--3--3--|---3b4-------------|


        pm...            pm...          pm...           pm...
 
      |------------------------------------------------------------------|
      |------------------------------------------------------------------|
      |------------------------------------------------------------------|
      |-3--3--3---------3--3--3---------3--3--3---------3-3-3-4-4-4------|
      |-3--3--3---------3--3--3---------3--3--3---------3-3-3-4-4-4------|
      |-3--3--3--5h6p5--3--3--3--3b(4)--3--3--3--5h6p5--3-3-3-4-4-4------|


       That's all.I hope you'll like it.
     
Добавлено: 14.06.2013
Другие материалы по этой песне:
  • Аккорды и текст

Страница создана 05.03.2012
http://primanota.ru/snapcase/caboose-chords.htm
Привет, Гость.
Предлагаем пройти революционный курс по гитаре.
Подарок от PrimaNota.Ru, забирай!