PrimaNota.ru - самый крупный в мире бесплатный архив песенных текстов, аккордов, табулатур и нот


Snapcase - 20Th Nervous Breakdown - таба, видео

Регистрация Запомнить меня
Войти через:  Facebook Google Twitter Vk Yandex Mail.ru

Snapcase - 20Th Nervous Breakdown - таба, видео

Печатать
Просмотров: 55
Новый альбом группы 'Черный Кузнец' по культовому сериалу 'Сверхъестественное'!
[verse]

E|-----------------------------------------
B|-----------------------------------------
G|-----------------------------------------  x3
D|--9--11--9--9--11--9--9--11--9--7--7--7--
A|--9--11--9--9--11--9--9--11--9--7--7--7--
D|--9--11--9--9--11--9--9--11--9--7--7--7--

E|-----------------------------------------------------------------------------
B|-----------------------------------------8--8--8--8--10--10--10--10--10--10--
G|-----------------------------------------7--7--7--7--9---9---9---9---9---9---
D|--9--11--9--9--11--9--9--11--9--7--7--7--5--5--5--5--7---7---7---7---7---7---
A|--9--11--9--9--11--9--9--11--9--7--7--7--5--5--5--5--7---7---7---7---7---7---
D|--9--11--9--9--11--9--9--11--9--7--7--7--5--5--5--5--7---7---7---7---7---7---


E|-----------------------------------------
B|-----------------------------------------
G|-----------------------------------------  x3
D|--9--11--9--9--11--9--9--11--9--7--7--7--
A|--9--11--9--9--11--9--9--11--9--7--7--7--
D|--9--11--9--9--11--9--9--11--9--7--7--7--

E|-----------------------------------------------------------------------------
B|-----------------------------------------8--8--8--8--10--10--10--10--10--10--
G|-----------------------------------------7--7--7--7--9---9---9---9---9---9---
D|--9--11--9--9--11--9--9--11--9--7--7--7--5--5--5--5--7---7---7---7---7---7---
A|--9--11--9--9--11--9--9--11--9--7--7--7--5--5--5--5--7---7---7---7---7---7---
D|--9--11--9--9--11--9--9--11--9--7--7--7--5--5--5--5--7---7---7---7---7---7---



[chorus]

E|-----------------------------------------------------
B|-----------------------------------------------------
G|--9--11--11--11--11--11--13--13--13--13--14--14--14--  x6
D|--7--9---9---9---9---9---11--11--11--11--12--12--12--
A|--7--9---9---9---9---9---11--11--11--11--12--12--12--
D|--7--9---9---9---9---9---11--11--11--11--12--12--12--



[verse]

E|-----------------------------------------
B|-----------------------------------------
G|-----------------------------------------  x3
D|--9--11--9--9--11--9--9--11--9--7--7--7--
A|--9--11--9--9--11--9--9--11--9--7--7--7--
D|--9--11--9--9--11--9--9--11--9--7--7--7--

E|-----------------------------------------------------------------------------
B|-----------------------------------------8--8--8--8--10--10--10--10--10--10--
G|-----------------------------------------7--7--7--7--9---9---9---9---9---9---
D|--9--11--9--9--11--9--9--11--9--7--7--7--5--5--5--5--7---7---7---7---7---7---
A|--9--11--9--9--11--9--9--11--9--7--7--7--5--5--5--5--7---7---7---7---7---7---
D|--9--11--9--9--11--9--9--11--9--7--7--7--5--5--5--5--7---7---7---7---7---7---


E|-----------------------------------------
B|-----------------------------------------
G|-----------------------------------------  x3
D|--9--11--9--9--11--9--9--11--9--7--7--7--
A|--9--11--9--9--11--9--9--11--9--7--7--7--
D|--9--11--9--9--11--9--9--11--9--7--7--7--

E|-----------------------------------------------------------------------------
B|-----------------------------------------8--8--8--8--10--10--10--10--10--10--
G|-----------------------------------------7--7--7--7--9---9---9---9---9---9---
D|--9--11--9--9--11--9--9--11--9--7--7--7--5--5--5--5--7---7---7---7---7---7---
A|--9--11--9--9--11--9--9--11--9--7--7--7--5--5--5--5--7---7---7---7---7---7---
D|--9--11--9--9--11--9--9--11--9--7--7--7--5--5--5--5--7---7---7---7---7---7---



[chorus]

E|-----------------------------------------------------
B|-----------------------------------------------------
G|--9--11--11--11--11--11--13--13--13--13--14--14--14--  x6
D|--7--9---9---9---9---9---11--11--11--11--12--12--12--
A|--7--9---9---9---9---9---11--11--11--11--12--12--12--
D|--7--9---9---9---9---9---11--11--11--11--12--12--12--



[bridge]

E|--------------------------------
B|--------------------------------
G|--------------------------------  x3
D|--9--9--9--7--9--5--5--7--9--7--
A|--9--9--9--7--9--5--5--7--9--7--
D|--9--9--9--7--9--5--5--7--9--7--

E|------------------------------------------------------------
B|--------------------------------8--8--8--8--10--10--10--10--
G|--------------------------------7--7--7--7--9---9---9---9---
D|--9--9--9--7--9--5--5--7--9--7--5--5--5--5--7---7---7---7---
A|--9--9--9--7--9--5--5--7--9--7--5--5--5--5--7---7---7---7---
D|--9--9--9--7--9--5--5--7--9--7--5--5--5--5--7---7---7---7---


[fill]


E|------
B|------ x12 (trill)                                                
G|--14--
D|--x---
A|--12--
D|------


[verse]

E|-----------------------------------------
B|-----------------------------------------
G|-----------------------------------------  x3
D|--9--11--9--9--11--9--9--11--9--7--7--7--
A|--9--11--9--9--11--9--9--11--9--7--7--7--
D|--9--11--9--9--11--9--9--11--9--7--7--7--

E|-----------------------------------------------------------------------------
B|-----------------------------------------8--8--8--8--10--10--10--10--10--10--
G|-----------------------------------------7--7--7--7--9---9---9---9---9---9---
D|--9--11--9--9--11--9--9--11--9--7--7--7--5--5--5--5--7---7---7---7---7---7---
A|--9--11--9--9--11--9--9--11--9--7--7--7--5--5--5--5--7---7---7---7---7---7---
D|--9--11--9--9--11--9--9--11--9--7--7--7--5--5--5--5--7---7---7---7---7---7---


E|-----------------------------------------
B|-----------------------------------------
G|-----------------------------------------  x3
D|--9--11--9--9--11--9--9--11--9--7--7--7--
A|--9--11--9--9--11--9--9--11--9--7--7--7--
D|--9--11--9--9--11--9--9--11--9--7--7--7--

E|-----------------------------------------------------------------------------
B|-----------------------------------------8--8--8--8--10--10--10--10--10--10--
G|-----------------------------------------7--7--7--7--9---9---9---9---9---9---
D|--9--11--9--9--11--9--9--11--9--7--7--7--5--5--5--5--7---7---7---7---7---7---
A|--9--11--9--9--11--9--9--11--9--7--7--7--5--5--5--5--7---7---7---7---7---7---
D|--9--11--9--9--11--9--9--11--9--7--7--7--5--5--5--5--7---7---7---7---7---7---


[alternative ending of the verse]

E|--------------------------------------
B|--8--8--8--8--10--10--10--10--10--10--
G|--7--7--7--7--9---9---9---9---9---9---  x2
D|--5--5--5--5--7---7---7---7---7---7---
A|--5--5--5--5--7---7---7---7---7---7---
D|--5--5--5--5--7---7---7---7---7---7---


[fade out]

E|------
B|------ x12 (trill)                                                
G|--14--
D|--x---
A|--12--
D|------

Добавлено: 17.03.2018
Другие материалы по этой песне:
  • Аккорды и текст

Страница создана 17.03.2018
http://primanota.ru/snapcase/20th-nervous-breakdown-chords.htm
Привет, Гость.
Предлагаем пройти революционный курс по гитаре.
Подарок от PrimaNota.Ru, забирай!