PrimaNota.ru - самый крупный в мире бесплатный архив песенных текстов, аккордов, табулатур и нот


Smoove And Turrell - Slow Down - таба, видео

Регистрация Запомнить меня
Войти через:  Facebook Google Twitter Vk Yandex Mail.ru

Smoove And Turrell - Slow Down - таба, видео

Печатать
Просмотров: 126
Уроки эстрадного вокала в Санкт-Петербурге
This is a cool acoustic version of Slow Down by Smoove & Turrell

Original song is in C#m.

I did't put a lot of time in tabbing out the chorus rhythm, but it gets close. Just listen to the song
The chord progression is Am - C - F - Em.

Capo: 4

Am7 - ( x 0 2 0 1 0 )
C   - ( x 3 2 0 1 0 )
F7M - ( 1 x 2 2 1 0 )
Em7 - ( 0 2 0 0 0 0 )


---------------
Intro:
---------------

   Am7                        C                       
     E   E  E  Q    E  E  E     E  E  E  Q    E  E  E   
E||------------0-------------|-----------0-------------|
B||------1----------1-----1--|-----1----------1-----1--|
G||---------0----------0-----|--------0----------0-----|
D||--------------------------|-------------------------|
A||--0-----------------------|--3----------------------|
E||--------------------------|-------------------------|


  F7M                        Em7                          
  E   E  E  Q    E  E  E     E   E  E  S  S  E  E  E  E   
------------0-------------|------------------------------|
------1----------1-----1--|------------0h-1p-0-----------|
---------2----------2-----|------0--------------0-----0--|
--------------------------|---------0--------------0-----|
--------------------------|------------------------------|
--1-----------------------|--0---------------------------|

---------------
Verse 1:
---------------

  Am7                        C                         F7M                      
  E   E  E  Q    E  E  E     E  E  E  Q    E  E  E     E   E  E  Q    E  E  E   
------------0-------------|-----------0-------------|------------0-------------|
------1----------1-----1--|-----1----------1-----1--|------1----------1-----1--|
---------0----------0-----|--------0----------0-----|---------2----------2-----|
--------------------------|-------------------------|--------------------------|
--0-----------------------|--3----------------------|--------------------------|
--------------------------|-------------------------|--1-----------------------|
           Slow down....            You're moving too fast........

  Em7                            Am7                      
  E   E  E  S  S  E  E  E  E     E   E  E  Q    E  E  E   
------------------------------|------------0-------------|
------------0h-1p-0-----------|------1----------1-----1--|
------0--------------0-----0--|---------0----------0-----|
---------0--------------0-----|--------------------------|
------------------------------|--0-----------------------|
--0---------------------------|--------------------------|
With your head... all your maybe's.        Low down...

  C                         F7M                      
  E  E  E  Q    E  E  E     E   E  E  Q    E  E  E   
-----------0-------------|------------0-------------|
-----1----------1-----1--|------1----------1-----1--|
--------0----------0-----|---------2----------2-----|
-------------------------|--------------------------|
--3----------------------|--------------------------|
-------------------------|--1-----------------------|
         Your moment has  passed.......

  Em7                            Am7                      
  E   E  E  S  S  E  E  E  E     E   E  E  Q    E  E  E   
------------------------------|------------0-------------|
------------0h-1p-0-----------|------1----------1-----1--|
------0--------------0-----0--|---------0----------0-----|
---------0--------------0-----|--------------------------|
------------------------------|--0-----------------------|
--0---------------------------|--------------------------|
To hang around...seems too crazy.          All you

  C                         F7M                      
  E  E  E  Q    E  E  E     E   E  E  Q    E  E  E   
-----------0-------------|------------0-------------|
-----1----------1-----1--|------1----------1-----1--|
--------0----------0-----|---------2----------2-----|
-------------------------|--------------------------|
--3----------------------|--------------------------|
-------------------------|--1-----------------------|
got...     is what you   had         Salted lines to 

  Em7                            Am7                      
  E   E  E  S  S  E  E  E  E     E   E  E  Q    E  E  E   
------------------------------|------------0-------------|
------------0h-1p-0-----------|------1----------1-----1--|
------0--------------0-----0--|---------0----------0-----|
---------0--------------0-----|--------------------------|
------------------------------|--0-----------------------|
--0---------------------------|--------------------------|
keep them fresh                                Always

  C                         F7M                      
  E  E  E  Q    E  E  E     E   E  E  Q    E  E  E   
-----------0-------------|------------0-------------|
-----1----------1-----1--|------1----------1-----1--|
--------0----------0-----|---------2----------2-----|
-------------------------|--------------------------|
--3----------------------|--------------------------|
-------------------------|--1-----------------------|
there... but nothing changed            Even your lies


---------------
Chorus
---------------

Em7                         Am7                      
                              |--3-|                   
  E   E  E  E  E  E  E  E     Q    E  E  E  Q    Q     
---------------------------|--0----------0--L----x----|
---------------------------|--1----3--x--1--L----x----|
--0---0--0--0--0--0--0--0--|--0----0--x--0--L----x----|
--0---0--0--0--0--0--0--0--|--2----2--x--2--L----x----|
---------------------------|--0----0--x--0--L----x----|
--0---0--0--0--0--0--0--0--|--------------------------|
remain the same...                     It's what you    do

  C                          F7M                      
  |--3-|                     |--3-|                   
  Q    E  E  E  Q    Q       Q    E  E  E  Q    Q     
--0----1-----0--L----x----|--1----3-----1--L----x----|
--1----1--x--1--L----x----|--1----1--x--1--L----x----|
--0----0--x--0--L----x----|--2----2--x--2--L----x----|
--2----2--x--2--L----x----|--2----2--x--2--L----x----|
--3----3--x--3--L----x----|--x----x--x--x--L----x----|
--------------------------|--1----1-----1------------|
              It's what you have              That we have

  Em7                         Am7                      
                              |--3-|                   
  E   E  E  E  E  E  E  E     Q    E  E  E  Q    Q     
---------------------------|--0----------0--L----x----|
--0---0--0--0--0--0--0--0--|--1----3--x--1--L----x----|
--0---0--0--0--0--0--0--0--|--0----0--x--0--L----x----|
--0---0--0--0--0--0--0--0--|--2----2--x--2--L----x----|
--2---2--2--2--2--2--2--2--|--0----0--x--0--L----x----|
--0---0--0--0--0--0--0--0--|--------------------------|
not seen lately                       It's all a       joke

  C                          F7M                      
  |--3-|                     |--3-|                   
  Q    E  E  E  Q    Q       Q    E  E  E  Q    Q     
--0----1-----0--L----x----|--1----3-----1--L----x----|
--1----1--x--1--L----x----|--1----1--x--1--L----x----|
--0----0--x--0--L----x----|--2----2--x--2--L----x----|
--2----2--x--2--L----x----|--2----2--x--2--L----x----|
--3----3--x--3--L----x----|--x----x--x--x--L----x----|
--------------------------|--1----1-----1------------|
             And such a     laugh             How did it 

  Em7                                   
  E   E  E  E  E  E  Q      
--------------------------|
--0---0--0--0--0--0--0----|
--0---0--0--0--0--0--0----|
--0---0--0--0--0--0--0----|
--2---2--2--2--2--2--2----|
--0---0--0--0--0--0--0----|
  end up crazy


Order:

Verse + Chorus
Bridge
Verse + Chorus




Duration Legend
---------------
W - whole
H - half
Q - quarter
E - 8th
S - 16th
T - 32nd
X - 64th
. - note dotted
|-n-|  - n-tuplets


Tablature Legend
----------------
L - tied note
x - dead note
g - grace note
(n) - ghost note
> - accentuded note
NH - natural harmonic
AH - artificial harmonic
TH - tapped harmonic
SH - semi harmonic
PH - pitch harmonic
h - hammer on
p - pull off
b - bend
br - bendRelease
pb - preBend
pbr - preBendRelease
brb - bendReleaseBend
\n/ - tremolo bar dip
\n - tremolo bar dive
-/n - tremolo bar Release up
/n\ - tremolo bar inverted dip
/n - tremolo bar return
-\n - tremolo bar Release down
S - shift slide
s - legato slide
/ -  slide into from below or out of upwards
\ -  slide into from above or out of downwards
~ - vibrato
W - wide vibrato
tr - trill
TP - tremolo picking
T - tapping
S - slap
P - pop
< - fade in
^ - brush up
v - brush down


 
Добавлено: 19.12.2015
Другие материалы по этой песне:
  • Аккорды и текст

Страница создана 19.12.2015
http://primanota.ru/smoove-and-turrell/slow-down-chords.htm
Привет, Гость.
Предлагаем пройти революционный курс по гитаре.
Подарок от PrimaNota.Ru, забирай!