PrimaNota.ru - самый крупный в мире бесплатный архив песенных текстов, аккордов, табулатур и нот


Smoking Popes - That's Where I Come In - аккорды и текст, видео

Регистрация Запомнить меня
Войти через:  Facebook Google Twitter Vk Yandex Mail.ru

Smoking Popes - That's Where I Come In - аккорды и текст, видео

Печатать
Просмотров: 92
That's Where I Come In
Smoking Popes
 That's Where I Come In
by the Smoking Popes
from the album Get Fired

 Intro/Verse> Clean guitar

C A E

 Chorus> Distortion

G F G C A F G# ...........

That's where I come in
                     D# G# (repeat several times during which 2nd guitar..)

 2nd guitar Fill>  
     
      D#              G#               end with G
e|------------------------------------|
B|----8-------8---------8---11-9------|
G|--8---8--10---10-8--8---8------8----|
D|------------------------------------|
A|------------------------------------|
E|------------------------------------|

 Solo>
(2x)

e|---------------------------|
B|---------------------------|
G|-------5-4-2-0-------------|
D|-5---5---------2--5--------|
A|---7----------------7------|
E|----------------------7/-0-|

 Outro>

D# G# and 2nd guitar fill
End with G
     
Добавлено: 26.11.2013
Другие материалы по этой песне:
  • Аккорды и текст

Страница создана 24.06.2012
http://primanota.ru/smoking-popes/thats-where-i-come-in-chords.htm
Привет, Гость.
Предлагаем пройти революционный курс по гитаре.
Подарок от PrimaNota.Ru, забирай!