PrimaNota.ru - самый крупный в мире бесплатный архив песенных текстов, аккордов, табулатур и нот


Smoking Popes - Stars - текст песни, таба, видео

Регистрация Запомнить меня
Войти через:  Facebook Google Twitter Vk Yandex Mail.ru

Smoking Popes - Stars - текст песни, таба, видео

Печатать
Просмотров: 79
 Artist: Smoking Popes
 Song:   Stars
 Album:  "2"
 
 written by Josh Caterer

 tabbed by Kelvin  karenl@pl.jaring.my> Email for comments/corrections,
 suggestions.

 intro>
 2X>
 Just an arpeggio of the B chord at the 7th fret:

e|---------------------------|
B|------7---------7-9-7------|
G|----8---8---8-9-------9-8--|
D|--9-------9----------------|
A|---------------------------|
E|---------------------------|


 verse 1>

B    D#m       C#m            F#   with   fill>look below
Your dreams.............come true

B        D#m             C#m               A  F#
If you'd....dream...................... you

E              D#m               F#                B
Look up ........................................ upon

E           D#m
If I were a lucky.......

C#m                           F#
I dont ...........know what to do

                        
                          fill> positioned at F#

                       e|----------|
                       B|----------|
                       G|--3-4-3---|
                       D|--------4-|
                       A|----------|
                       E|----------|

 verse 2>

 solo>
No guitar playing during the solo
   
e|------------------|-----------------|---------------|
B|-12---11---9------|-12---11---9-----|-12---11---9---|
G|-14^^-13^^-11^^---|-14^^-13^^-11^^--|-14^^-13^^-11^-|
D|------------------|-----------------|---------------|
A|------------------|-----------------|---------------|
E|------------------|-----------------|---------------|

e|-----------------11-|------11-----11------11-|
B|-12---11---9--------|-14^^----14^----14^^----|
G|-14^^-13^^-11^^-----|------------------------|
D|--------------------|------------------------|
A|--------------------|------------------------|
E|--------------------|------------------------|  

e|--14p12p11----11h12p11-9h11p11----------14-----------------|
B|-----------14-------------------12h14^^----14r-14p12----12-|
G|-----------------------------------------------------13----|
D|-----------------------------------------------------------|
A|-----------------------------------------------------------|
E|-----------------------------------------------------------|

e|----------------|------14h16p14-----------------|
B|-19^^-19-19^^~~-|-19^^----------17h19p19--16-17-|
G|----------------|-------------------------------|
D|----------------|-------------------------------|
A|----------------|-------------------------------|
E|----------------|-------------------------------|

e|--------19------------19^^-19-|-16h19p19-14h16p16-12h14p12---|
B|-16-19^^---19^^-19-17---------|------------------------------|
G|------------------------------|------------------------------|
D|------------------------------|------------------------------|
A|------------------------------|------------------------------|
E|------------------------------|------------------------------|

e|----------------------------------------|-----------------------|
B|--14h16p14-12h14^^r14p12----14-12-11----|-------------12-14-12--|
G|-------------------------13----------11-|-------11-13-----------|
D|----------------------------------------|-13-14-----------------|
A|----------------------------------------|-----------------------|
E|----------------------------------------|-----------------------|


e|------12-------------|-16-14----12~~|------19-------------------------|
B|-14^^----14^^r--12^^-|-------16-----|-19^^----19^^-19-17--17-16-14----|
G|---------------------|--------------|------------------------------16-|
D|---------------------|--------------|---------------------------------|
A|---------------------|--------------|---------------------------------|
E|---------------------|--------------|---------------------------------|

 verse3>

 outro>

E     
C you see........
        
       B
In the stars tonight?

 repeat until end with B>
     
Добавлено: 16.11.2013
Другие материалы по этой песне:
  • Аккорды и текст

Страница создана 08.03.2012
http://primanota.ru/smoking-popes/stars-chords.htm
Привет, Гость.
Предлагаем пройти революционный курс по гитаре.
Подарок от PrimaNota.Ru, забирай!