PrimaNota.ru - самый крупный в мире бесплатный архив песенных текстов, аккордов, табулатур и нот


Smoking Popes - Star Struck One - аккорды и текст, видео

Регистрация Запомнить меня
Войти через:  Facebook Google Twitter Vk Yandex Mail.ru

Smoking Popes - Star Struck One - аккорды и текст, видео

Печатать
Просмотров: 152
Уроки эстрадного вокала в Санкт-Петербурге
Star Struck One
Smoking Popes
 Star Sruck One
by the Smoking Popes
from the album Destination Failure

tabbed by Kelvin Lee
e-mail :karenl@pl.jaring.my for comments/correction.


  intro/verse> listen to the CD for timing and strumming.

    
    E   B   B?  C#m   F#m    E     Bm    B   A  (hold)    C   C(strum twice)


e|--0---2---5---4----9-------7-----7-----7---5------------8---3-3---|
B|--0---4---5---5----10------9-----7-----7---5------------8---5-5---|
G|--1---4---4---6----11------9-----7-----8---8------------9---5-5---|
D|--2---4---4---6----11------9-----9-----9---7-----------10---5-5---|
A|--2---2---2---4----9-------7-----9-----9---7-----------10---3-3---|
E|--0---x---x---x----x-------x-----7-----7---5------------8---x-x---|


    D

e|--5--|
B|--7--|
G|--7--|
D|--7--|
A|--5--|
E|--x--|
                then..


    E  C#m   F#m    E      Bm    B   A   Am7(or just use Am)

e|--0---4----9-------7-----7-----7---5---5----------|
B|--0---5----10------9-----7-----7---5---5----------|
G|--1---6----11------9-----7-----8---6---5----------|
D|--2---6----11------9-----9-----9---7---5----------|
A|--2---4----9-------7-----9-----9---7---7----------|
E|--0---x----x-------x-----7-----7---5---5----------|


then just repeat from the start when Josh starts singing.

 outro>
"my heart taps me on my shoulder..."

 both acoustic and distortion guitar:

     G#m  E   B   E   A   F#    B
     
e|---4----0---2---0---5---2-----2---------|
B|---4----0---4---0---5---2-----4---------|
G|---5----1---4---1---6---3-----4---------|
D|---6----2---4---2---7---4-----4---------|
A|---6----2---2---2---7---4-----2---------|
E|---4----0---x---0---5---2-----x---------|
     
Добавлено: 02.08.2013
Другие материалы по этой песне:
  • Аккорды и текст

Страница создана 24.03.2012
http://primanota.ru/smoking-popes/star-struck-one-chords.htm
Привет, Гость.
Предлагаем пройти революционный курс по гитаре.
Подарок от PrimaNota.Ru, забирай!