PrimaNota.ru - самый крупный в мире бесплатный архив песенных текстов, аккордов, табулатур и нот


Smoking Popes - Pure Imagination - текст песни, таба, бас-таба, видео

Регистрация Запомнить меня
Войти через:  Facebook Google Twitter Vk Yandex Mail.ru

Smoking Popes - Pure Imagination - текст песни, таба, бас-таба, видео

Печатать
Просмотров: 158
Smoking Popes
Pure Imagination
Tuning: Standard
Transcribed by Soch Hean

Intro:
|----------------------------------------3--------------------|
|----------------------------------------2--------------------|
|----------------------------------------0--------------------|
|----7-----------7-----------7-----------2--------------------|
|-0-----------0-----------0--------------0--------------------|
|-------4--5--------4--5--------4--5--------------------------|

Verse:
|-----------------------------------------------------------------|
|-----3-----3---------3-----2---------3-----3---3-----3-----3---3-|
|---0-----0---0---------------------2-----2---2-----2-----2---2---|
|-2-----2-------2---2-----2-------0-----0---------0-----0---------|
|-----------------0-----0-----------------------------------------|
|-----------------------------------------------------------------|

|-----------------------------------------------------------------|
|-----3-----3---------3-----2---------3-----3---3-----3-----3---3-|
|---0-----0---0---------------------2-----2---2-----2-----2---2---|
|-2-----2-------2---2-----2-------0-----0---------0-----0---------|
|-----------------0-----0-----------------------------------------|
|-----------------------------------------------------------------|

|-----------------------------------------------------------------|
|-----3-----3---------3-----2---------3-----3---3-----3-----3---3-|
|---0-----0---0---------------------2-----2---2-----2-----2---2---|
|-2-----2-------2---2-----2-------0-----0---------0-----0---------|
|-----------------0-----0-----------------------------------------|
|-----------------------------------------------------------------|

|-----------------------------------------------------------------|
|-----3-----3---------3-----2-------------------------------------|
|---0-----0---0---------------------------------------------------|
|-2-----2-------2---2-----2-------4-4-4-4-4-4-4-4-4-4-4-4-4-4-4-4-|
|-----------------0-----0---------4-4-4-4-4-4-4-4-4-4-4-4-4-4-4-4-|
|---------------------------------2-2-2-2-2-2-2-2-2-2-2-2-2-2-2-2-|

Bridge/Chorus: (If you wanna view paradise...)
|-3-------2--------0------0----2--------4---4----2------2-------0---|
|-3-------2--------0------2----3--------5---6----2------3-------0---|
|-0-------2--------0------0----2--------6---6----2------4-------1---|
|-0-------4--------2------2----0--------6---6----4------4-------2---|
|-2-------4--------2------0-------------4---4----4------2-------2---|
|-3-------2--------0-----------------------------2-----------0--0---|

Guitar Riff:
|----------------------------------------3--------------------|
|----------------------------------------2--------------------|
|----------------------------------------0--------------------|
|----7-----------7-----------7-----------2--------------------|
|-0-----------0-----------0--------------0--------------------|
|-------4--5--------4--5--------4--5--------------------------|

Verse 2:
|-----------------------------------------------------------------|
|-----3-----3---------3-----2---------3-----3---3-----3-----3---3-|
|---0-----0---0---------------------2-----2---2-----2-----2---2---|
|-2-----2-------2---2-----2-------0-----0---------0-----0---------|
|-----------------0-----0-----------------------------------------|
|-----------------------------------------------------------------|

|---------------------------------2---1----2----------------------|
|-----3-----3---------3-----2-----2---1----3----------------------|
|---0-----0---0-------------------3---2----2----------------------|
|-2-----2-------2---2-----2-------4---3----0----------------------|
|-----------------0-----0---------4---3---------------------------|
|---------------------------------2---1---------------------------|

Guitar Solo:
|-----------------------------------------------------------------|
|-15~--14--12--14--12--------12s15~-14--12--14\-------------------|
|---------------------14~-----------------------9s=11~~~----------|
|-----------------------------------------------------------------|
|-----------------------------------------------------------------|
|-----------------------------------------------------------------|

|-14~--12----------------------------------------------------------|
|----------15~-14--------------------------------------------------|
|------------------14--12-11---9s=11~--11s14=s12\--7s=9=s11~~------|
|------------------------------------------------------------------|
|------------------------------------------------------------------|
|------------------------------------------------------------------|

Bridge/Chorus: (If you wanna view paradise...)
|-3-------2--------0------0----2--------4---4----2------2-------0---|
|-3-------2--------0------2----3--------5---6----2------3-------0---|
|-0-------2--------0------0----2--------6---6----2------4-------1---|
|-0-------4--------2------2----0--------6---6----4------4-------2---|
|-2-------4--------2------0-------------4---4----4------2-------2---|
|-3-------2--------0-----------------------------2-----------0--0---|

Guitar Riff:
|----------------------------------------3--------------------|
|----------------------------------------2--------------------|
|----------------------------------------0--------------------|
|----7-----------7-----------7-----------2--------------------|
|-0-----------0-----------0--------------0--------------------|
|-------4--5--------4--5--------4--5--------------------------|

Verse 3:
|-----------------------------------------------------------------|
|-----3-----3---------3-----2---------3-----3---3-----3-----3---3-|
|---0-----0---0---------------------2-----2---2-----2-----2---2---|
|-2-----2-------2---2-----2-------0-----0---------0-----0---------|
|-----------------0-----0-----------------------------------------|
|-----------------------------------------------------------------|

|---------------------------------2---1----2----------------------|
|-----3-----3---------3-----2-----2---1----3----------------------|
|---0-----0---0-------------------3---2----2----------------------|
|-2-----2-------2---2-----2-------4---3----0----------------------|
|-----------------0-----0---------4---3---------------------------|
|---------------------------------2---1---------------------------|
Добавлено: 10.03.2012
Другие материалы по этой песне:
  • Аккорды и текст

Страница создана 10.03.2012
http://primanota.ru/smoking-popes/pure-imagination-chords.htm
Привет, Гость.
Предлагаем пройти революционный курс по гитаре.
Подарок от PrimaNota.Ru, забирай!