PrimaNota.ru - самый крупный в мире бесплатный архив песенных текстов, аккордов, табулатур и нот


Smoking Popes - No More Smiles - текст песни, таба, бас-таба, видео

Регистрация Запомнить меня
Войти через:  Facebook Google Twitter Vk Yandex Mail.ru

Smoking Popes - No More Smiles - текст песни, таба, бас-таба, видео

Печатать
Просмотров: 118
 No More Smiles
by the Smoking Popes
from the album Destination Failure

tabbed by Kelvin Lee
e-mail :karenl@pl.jaring.my for comments/correction.


 intro>

F#  C#  B  C#  (2x)

 verse>

         F#      
No more smiles

           C#        B             C#
It's just t........................gr.....

B          C#                F#          B    C#
 No one's a..................l..........ym.....

        F#           C#
And I'm sore about it

          B       C#          B
When did my heart c...........m

             C#              F#          B    C#
It must have b...............c...........t


 Chorus>

F#         C#              F#
   No more smiles from now on

         B      F#
They are all gone

     C#          B              C#
I'll never understand what went wrong


(2X)


 Solo>

Legend:

~~ tremolo

^^ bend up one step(full bend)

'^'release bend 

h  hammer on

p  pull off

e|--------------------------14--13-11---------- 14-11-------------------|
B|---14--------14~~---------------------14~~----------14-14h16-16~------|
G|------15h16--------15h16----------------------------------------------|
D|----------------------------------------------------------------------|
A|----------------------------------------------------------------------|
E|----------------------------------------------------------------------|



e|----------------------------------------------------------------------|
B|--18--15--13--11~~-------------------14-------------------------------|
G|--18--15--13--11~~----13h15-13-15-16-----15p13----13~~----------------|
D|-----------------------------------------------16---------------------|
A|----------------------------------------------------------------------|
E|----------------------------------------------------------------------|

                                                           

e|------------------------------------------------------21--------------|
B|--14--------------------------------16h18h19--21-21^^----21'^'---19~~-|
G|-----15p13-----------------15h16h18-----------------------------------|
D|-----------16--------16h18--------------------------------------------|
A|---------------16h18--------------------------------------------------|
E|----------------------------------------------------------------------|


e|----------------------------------------------------------------------|
B|--18h19-18-16-14----------14------------------------------------------|
G|-----------------16-15-16----16-15----15~~----------------------------|
D|-----------------------------------16---------------------------------|
A|----------------------------------------------------------------------|
E|----------------------------------------------------------------------|

play the verse twice during solo for 2nd guitar.

 chorus>
and end song with F#
--Message-Boundary-30155--

     
Добавлено: 20.09.2013
Другие материалы по этой песне:
  • Аккорды и текст

Страница создана 23.02.2012
http://primanota.ru/smoking-popes/no-more-smiles-chords.htm
Привет, Гость.
Предлагаем пройти революционный курс по гитаре.
Подарок от PrimaNota.Ru, забирай!