PrimaNota.ru - самый крупный в мире бесплатный архив песенных текстов, аккордов, табулатур и нот


Smoking Popes - Mrs. You And Me - аккорды и текст, таба, видео

Регистрация Запомнить меня
Войти через:  Facebook Google Twitter Vk Yandex Mail.ru

Smoking Popes - Mrs. You And Me - аккорды и текст, таба, видео

Печатать
Просмотров: 97
Mrs. You And Me
Smoking Popes
Legend:

~~ Tremolo
^  Bend up half step
/  Slide
h  Hammer on
p  Pull off

{Intro}
                   G//             G//   C D
e|----------------------------------------------|
B|-8p7---7^-8-----------8p7---7^-8--------------|
G|-----7------7~~-----------7------7~~----------|
D|----------------------------------------------|
A|----------------------------------------------|
E|----------------------------------------------|


G                  C      Am     D     
I'm thinking about asking you to be
C    Am      D
Mrs. You and Me
G                  C        Am      D
I'm taking my time trying to find out
C          Am    D
If there's any doubt

     Em             C
They say, we're too young
      G                              C
But I never listen to what I've been told
        Em              C            G
And I'd rather be to young, than too old
   B              Em        A
To feel the way I do about you

{Intro}

G                  C      Am      D
I'm taking a long look at all the pain
C         Am        D
Life with you might bring
G                 C      Am      D
I'm taking a good look inside my heart
C           Am        D
I think I'm ready to start

Em                  C
Today, could be the day
        G                                C
But I'm waiting for the perfect time and place
        Em                    C           G
And I'm scared, what you might say baby, please
B                      Em      A
Please don't turn me away, I need you

{Intro}

{Solo}

    G                  C     Am   D     C     Am     D
 
e|-------------------------------------------------------------------------|
B|--------------------13-12-10----------13-12-10---------------------------|
G|--------------14~~-----------12----------------12-9----------------------|
D|-/9-9-9-10-12-------------------12~~----------------12--14p12h14p12~~----|
A|-------------------------------------------------------------------------|
E|-------------------------------------------------------------------------|

   G                 C     Am    D              C     Am     D
e|-------------------------------------------------------------------------|
B|------------------13-12-10--------------------13-12-10-------------------|
G|-----------14~~------------12--------------------------12-9-----------12~|
D|-9-9-10-12--------------------12~-14p12h14p12--------------12~-9-10-12---|
A|-------------------------------------------------------------------------|
E|-------------------------------------------------------------------------|


     Em             C
They say, we're too young
      G                              C
But I never listen to what I've been told
        Em              C            G
And I'd rather be to young, than too old
   B              Em        A
To feel the way I do about you

G                  C      Am     D
I'm thinking about asking you to be
C    Am      D
Mrs. You and Me
C    Am      D
Mrs. You and Me

[Repeat until end of song]
Добавлено: 25.11.2015
Другие материалы по этой песне:
  • Аккорды и текст

Страница создана 17.03.2012
http://primanota.ru/smoking-popes/mrs-you-and-me-chords.htm
Привет, Гость.
Предлагаем пройти революционный курс по гитаре.
Подарок от PrimaNota.Ru, забирай!