PrimaNota.ru - самый крупный в мире бесплатный архив песенных текстов, аккордов, табулатур и нот


Smoking Popes - Midnight Moon - текст песни, таба, видео

Регистрация Запомнить меня
Войти через:  Facebook Google Twitter Vk Yandex Mail.ru

Smoking Popes - Midnight Moon - текст песни, таба, видео

Печатать
Просмотров: 188
 Midnight Moon
by the Smoking Popes
from the album Born to Quit

tabbed by Kelvin Lee
e-mail :karenl@pl.jaring.my for comments/correction.


 intro>

D// E//

 Verse>

A               D        E        A       D    E
Midnight Moon I hold you for this,perfect night...

A               D      E       A     D     E


          F#m     B          D    E


C#m           D       Fm
You must also be, in love.


Repeat verse


 Bridge>

C       G            D      Em        F
Wait until she knows,how I feel about her

C       G         D       Em      F       A  D E  A D E



 Solo>

Legend:

~~ tremolo

^^ bend up one step(full bend)

h  hammer on

p  pull off


  A       D     E   A       D       E        A      D     E
e|-------------------------------------------------------------------------|
B|-------------------------------------------------------------------------|
G|------------------9^^-9-7-6-7-6------------------------------------------|
D|---7-6-7-9-7-6-7----------------9-------------7-6-7-9-7-6-7--------------|
A|-7--------------------------------7~~-------7----------------------------|
E|-------------------------------------------------------------------------|

   A            D             E
e|-------------------------------------------------------------------------|
B|-9-10-7-9---7------------------------------------------------------------|
G|----------9---6-9-7-6-7-6------------------------------------------------|
D|--------------------------9-7--------------------------------------------|
A|------------------------------9~~----------------------------------------|
E|-------------------------------------------------------------------------|


        F#m     B             D    E
With that,girl beside me,and you above

C#m           D       Fm


A      D E
In love     (3x)

 End song with A>
     
Добавлено: 11.07.2013
Другие материалы по этой песне:
  • Аккорды и текст

Страница создана 27.03.2012
http://primanota.ru/smoking-popes/midnight-moon-chords.htm
Привет, Гость.
Предлагаем пройти революционный курс по гитаре.
Подарок от PrimaNota.Ru, забирай!