PrimaNota.ru - самый крупный в мире бесплатный архив песенных текстов, аккордов, табулатур и нот


Smoking Popes - Lucky Day - таба, видео

Регистрация Запомнить меня
Войти через:  Facebook Google Twitter Vk Yandex Mail.ru

Smoking Popes - Lucky Day - таба, видео

Печатать
Просмотров: 101
Уроки эстрадного вокала в Санкт-Петербурге
Lucky Day
by the Smoking Popes
from the album Born to Quit


tabbed by Kelvin Lee
e-mail :karenl@pl.jaring.my for comments/correction.


E
 That ...

A           E         A
 This is my lucky day

                 E          A
That's what they a...

                  F#m
This is what they mean             e|-------------|
                                   B|-------------|
                                   G|-------------|
                                   D|--7-6-4------|
                                   A|--------7~~--|
                                   E|-------------|



E               A
 I'm looking up

       E              A
Into a cloudless blue

           E               A       B     E
Ever since I met you, it's been my lucky day

      A
And I s...

          G#
What it's a...

        F#m            A                D    B//
But without a doubt, today I just don't care

E               A
 I'm telling you
 
           E             A
It's never been this way

             E             A         B     E   B//
And all that I can say is this is my lucky day

 Solo>


Legend:

~~ tremolo

^^ bend up one step(full bend)

/  slide

h  hammer on

p  pull off


Play verse along with solo

e|-----------9~~---11-12-11h12p11p9------------------------------------|
B|-12-10-9--------------------------12-10-10-9----------------7--------|
G|---------9-----------------------------------11-9~~-9/6-6-9---9~~----|
D|---------------------------------------------------------------------|
A|---------------------------------------------------------------------|
E|---------------------------------------------------------------------|


e|---9-7p5p4-5p4p2-----------------------------------------------------|
B|-9---------------9p7p5-7-5---9-7~~--7--------------------------------|
G|---------------------------6----------9-8-6--------------------------|
D|--------------------------------------------9~~----------------------|
A|---------------------------------------------------------------------|
E|---------------------------------------------------------------------|


e|---------------------------------------------------------------------|
B|-9-10-9h10p9---12^^---12^^-12-9-10-----------------------------------|
G|-------------9-------------------------------------------------------|
D|-----------------------------------11~~------------------------------|
A|---------------------------------------------------------------------|
E|---------------------------------------------------------------------|


e|-------14-----17-16---------------------------19----19-17-16-16------|
B|-14-17----17--------14h17-14-17--14-19--14-17----14------------------|
G|---------------------------------------------------------------------|
D|---------------------------------------------------------------------|
A|---------------------------------------------------------------------|
E|---------------------------------------------------------------------|

e|-14-12----------12---------------------------------------------------|
B|-------12-14-16----16-14-12-12---------------------------------------|
G|-------------------------------14-13-13-11---------------------------|
D|-------------------------------------------14-14~~-------------------|
A|---------------------------------------------------------------------|
E|---------------------------------------------------------------------|



     A
And I still don't know

          G#
What it's all about

        F#m            A                D    B//
But without a doubt, today I just don't care

E               A
 I'm looking up

       E              A
Into a cloudless blue

           E               A       B     E   C#m
Ever since I met you, it's been my lucky day

             E            A           B    E
And all that I can say is this is my lucky day
     
Добавлено: 24.11.2013
Другие материалы по этой песне:
  • Аккорды и текст

Страница создана 24.11.2013
http://primanota.ru/smoking-popes/lucky-day-chords.htm
Привет, Гость.
Предлагаем пройти революционный курс по гитаре.
Подарок от PrimaNota.Ru, забирай!