PrimaNota.ru - самый крупный в мире бесплатный архив песенных текстов, аккордов, табулатур и нот


Smoking Popes - Follow The Sound - текст песни, таба, видео

Регистрация Запомнить меня
Войти через:  Facebook Google Twitter Vk Yandex Mail.ru

Smoking Popes - Follow The Sound - текст песни, таба, видео

Печатать
Просмотров: 59
Follow the Sound 
by the Smoking Popes
from the album Destination Failure

tabbed by Kelvin Lee
e-mail :karenl@pl.jaring.my for comments/correction.


Play  A> until "through the heavens we will fly..",whereby  B> will be 
played just once,and then play  C> until "and you'll be blonde"
Then play  A> etc..
That's how the timing goes throughout the whole song.
This sequence is repeated over & over again.


 A>

e|----2-0---0-2-|| Repeat this until..
B|---3-----3----||    
G|--2-----2-----||                     
D|--------------||                     
A|--------------||                     
E|--------------||                     

 B>                    C>
                      
e|-----2-0---| then.. ||-------------||
B|----0---0--|        ||---2-0---0-2-||
G|---0-----0-|        ||--2-----2----||
D|--2--------|        ||-2-----2---- ||
A|-----------|        ||-------------||
E|-----------|        ||-------------||



 Solo>

Legend:

~~ tremolo

^^  bend up one step(full bend)

'^'release bend 

/  slide

h  hammer on

p  pull off


e|-12----------------------------------------------------------------------|
B|-14^^-'^'--12------------------------------------------------------------|
G|--------------14~~--14-12-11----12-11------------------------------------|
D|-----------------------------14-------14-12-14/16-16-14------------------|
A|--------------------------------------------------------12~~-12/---------|
E|-------------------------------------------------------------------------|


e|-12----------------------------------------------------------------------|
B|-14^^-'^'-12-------------------------------------------------------------|
G|-------------14~~-14-12-11----12-11-------------12-11---11-9---7-6~~-----|
D|---------------------------14-------14-12-14~~--------9------7-----------|
A|-------------------------------------------------------------------------|
E|-------------------------------------------------------------------------|

                                (lightly)
e|-------------------------------------------------------------------------|
B|-------------------------------------------------------------------------|
G|--18-18-18-18-18-18-16-16-14---(18)-18-18-18-18-16-16-16-14~~------------|
D|--19-19-19-19-19-19-17-16-14---(19)-19-19-19-19-17-16-16-14~~------------|
A|-------------------------------------------------------------------------|
E|-------------------------------------------------------------------------|


e|-------------------------------------------------------------------------|
B|-------------------------------------------------------------------------|
G|---9--9--9--9--9--7--6-6--5--4-4--3--1--0--------------------------------|
D|--11-11-11-11-11--9--7-7--6--5-5--4--2--0--------------------------------|
A|-------------------------------------------------------------------------|
E|-------------------------------------------------------------------------|

  (lightly)
e|------------------------------------------------5~~----------------------|
B|-------------------------7----5-7-8-7-5---7-5----------------------------|
G|---------------------4-6-7--------------7-----7--------------------------|
D|---------------4-5-7-----------------------------------------------------|
A|---------4-5-7-----------------------------------------------------------|
E|-(5)-5-7-----------------------------------------------------------------|


e|-------------------------------------------------------------------------|
B|-----------7~~---7-8-7---------------------------------------------------
G|-----6-7-9-----9-------9-7---9/11-9/11-9/11-9~~----7-6-------------------|
D|-7-9-----------------------9---------------------9-----7~~---------------|
A|-------------------------------------------------------------------------|
E|-------------------------------------------------------------------------|


e|-------------------------------------------------------------------------|
B|-18-16-14-16-14-12-14-12-11-12-11--9-11-9--7-9-7-6-7-6--4-6-4-2-4-2------|
G|-18-16-14-16-14-12-14-12-11-12-11--9-11-9--7-9-7-6-7-6--4-6-4-2-4-2------|
D|-------------------------------------------------------------------------|
A|-------------------------------------------------------------------------|
E|-------------------------------------------------------------------------|


e|-------------------------------------------------------------------------|
B|-------------------------------------------------------------------------|
G|-5-7-5-4-5-4--2-4-2------------------------------------------------------|
D|-5-7-5-4-5-4--2-4-2--5-7-5-4-5-4-2-4-2-------------4/5-------------------|
A|---------------------5-7-5-4-5-4-2-4-2--5-4-3-2-0--4/5-------------------|
E|----------------------------------------5-4-3-2-0------------------------|
     
Добавлено: 18.06.2013
Другие материалы по этой песне:

Страница создана 05.03.2012
http://primanota.ru/smoking-popes/follow-the-sound-chords.htm
Привет, Гость.
Предлагаем пройти революционный курс по гитаре.
Подарок от PrimaNota.Ru, забирай!