PrimaNota.ru - самый крупный в мире бесплатный архив песенных текстов, аккордов, табулатур и нот


Smoking Popes - Bewitched - аккорды и текст, видео

Регистрация Запомнить меня
Войти через:  Facebook Google Twitter Vk Yandex Mail.ru

Smoking Popes - Bewitched - аккорды и текст, видео

Печатать
Просмотров: 54
Bewitched
Smoking Popes
-----------------------------------------------------------------------------
                                          Artist - Smoking Popes 
                                         ************************
                                             Song - Bewitched
                                            ******************
                                         Album - The Party's Over  
                                        *************************
                                          Tabbed By - Ayreon77
                                         **********************
-----------------------------------------------------------------------------
Tuning = Standard


INTRO
******
  D                 Em                D             F#        G         Ab
e|-----------------|-----------------|-------------|---------|---------|---|
B|-----3-------3---|-----3-------3---|-------3-----|---------|---------|---|
G|---2---2---2-----|---0---0---0---0-|--s--2----s--|---------|---------|---|
D|-0-------0-----0-|-2-------2-------|-2\4-----4\2-|-----4---|-----5---|---|
A|-----------------|-----------------|-------------|---4-----|---5-----|-6-|
E|-----------------|-----------------|-------------|-2-----2-|-3-----3-|-4-|

  D            Bm        Em
e|------------|---------|------p--------|
B|------------|---------|-----3-2-0-----|
G|-------7----|-----4---|-----------2---|
D|--s--7----s-|---4---4-|---2-----------|
A|-3\5-----5\-|-2-------|-0-----------0-|
E|------------|---------|---------------|


-------------------------
VERSE 1
********
    D             Em
I'm wild again, beguiled again
  D           F#        G           Ab
A whimpering, simpering child again
  D        Bm           A
Bewitched, bothered and bewildered
  D         Bm        A         
e|---------|---------|---------|
B|-----3---|---------|-------2-|
G|---2---2-|-----4---|-----2---|
D|-0-------|---4---4-|---2-----|
A|---------|-2-------|-0-------|
E|---------|---------|---------|
   Em    A
Am I
  Em   A
e|---|------|
B|-0-|-2----|
G|-0-|-2----|
D|-2-|-2--3-|
A|-2-|-0----|
E|-0-|------| 


-------------------------
VERSE 2
********
D                Em
Could not sleep, would not sleep
    D             F#          G                Ab
And love came and whispered I should not sleep
  D        Bm           A
Bewitched, bothered and bewildered
  D         Bm        A         
e|---------|---------|---------|
B|-----3---|---------|-------2-|
G|---2---2-|-----4---|-----2---|
D|-0-------|---4---4-|---2-----|
A|---------|-2-------|-0-------|
E|---------|---------|---------|

   Em    A
Am I
  Em   A
e|---|------|
B|-0-|-2----|
G|-0-|-2----|
D|-2-|-2----|
A|-2-|-0--1-|
E|-0-|------|


-------------------------
CHORUS
*******
Em
Lost my heart, so what of it
Bm
She was cold, I agree
A
  She can laugh and I love it
             D          Em  A
Although the laugh's on me


-------------------------
VERSE 3
********
     D                 Em
I'll sing to her, each spring to her
    D            F#         G            Ab
And long for the day when I cling to her
  D        Bm           A
Bewitched, bothered and bewildered
  D         Bm        A         
e|---------|---------|---------|
B|-----3---|---------|-------2-|
G|---2---2-|-----4---|-----2---|
D|-0-------|---4---4-|---2-----|
A|---------|-2-------|-0-------|
E|---------|---------|---------|
   D   G   D   Em
Am I

-------------------------
02:14
SOLO - Em Bm A D Em A 
*****
  Rake
e|---9-7---|--h-p-------------------|-------------|-------7------------------------|-----------|
B|--7----8-|-7-8-7---s--------------|-------------|---b-7---10-7-brp---------------|--p---p----|
G|-7-------|-------9-\7--s----------|------s--7---|-7-9----------9--7--9-7-----7---|-7-6-7-6---|
D|---------|------------9\7-5-7-5---|---5-7\9---9-|-------------------9----9-7---9-|---------7-|
A|---------|----------------------7-|-7-----------|--------------------------------|-----------|
E|---------|------------------------|-------------|--------------------------------|-----------|


e|----------------------|-----------------brp------------|-9-10-11-12--10-|-----s--|---------------------|
B|--s---s--10----s---s--|----------s--10-12--10----12-10-|----------------|-10-9\8-|-7-8-9-10-brp--------|
G|-6\7-7\9----9-7\6-7\6-|--s--6-7-7\9-----------11-------|----------------|--------|----------9--7---9-7-|
D|----------------------|-7\9----------------------------|----------------|--------|---------------9-----|
A|----------------------|--------------------------------|----------------|--------|---------------------|
E|----------------------|--------------------------------|----------------|--------|---------------------|


-------------------------
VERSE 4
********
D            Em
Pill she is, still she is
    D        F#            G            Ab
All mine and I'll keep her until she is
  D        Bm           A
Bewitched, bothered and bewildered
  D         Bm        A         
e|---------|---------|---------|
B|-----3---|---------|-------2-|
G|---2---2-|-----4---|-----2---|
D|-0-------|---4---4-|---2-----|
A|---------|-2-------|-0-------|
E|---------|---------|---------|
     D   Em   D   F#  G  Ab
Like me

  D         Bm        A         
e|---------|---------|---------|
B|-----3---|---------|-------2-|
G|---2---2-|-----4---|-----2---|
D|-0-------|---4---4-|---2-----|
A|---------|-2-------|-0-------|
E|---------|---------|---------|


D


ENJOY........
Добавлено: 25.11.2015
Другие материалы по этой песне:
  • Аккорды и текст

Страница создана 25.11.2015
http://primanota.ru/smoking-popes/bewitched-chords.htm
Привет, Гость.
Предлагаем пройти революционный курс по гитаре.
Подарок от PrimaNota.Ru, забирай!