PrimaNota.ru - самый крупный в мире бесплатный архив песенных текстов, аккордов, табулатур и нот


Smokey Robinson And The Miracles - Youve Really Got A Hold On Me - таба, бас-таба, видео

Регистрация Запомнить меня
Войти через:  Facebook Google Twitter Vk Yandex Mail.ru

Smokey Robinson And The Miracles - Youve Really Got A Hold On Me - таба, бас-таба, видео

Печатать
Просмотров: 139
YOU'VE REALLY GOT A HOLD ON ME

As recorded by Smokey Robinson & The Miracles
(From the 1963 Album THE FABULOUS MIRACLES)

Words and Music by Smokey Robinson

Transcribed by Slowhand


Gtr I (E A D G B E) - 'Marv Tarplin - Electric Guitar'


 Intro
  Q=80(8=s8)
  N.C.
 4/4
  Gtr I
  W          Q  Q  E E e E   W          Q  Q  E E e E   W
|----------|---------------|----------|---------------|------||
|----------|---------------|----------|---------------|------||
|----------|---------------|----------|---------------|------||
|----------|----2--2-0---0-|----------|----2--2-0---0-|------||
|----------|-----------3---|-0--------|-----------3---|-0----||
|----------|---------------|----------|---------------|------||


   1st - 3rd Verses
    $
       C                            Am
    Q  e E Q  e E   Q  Q  E E e E   H.      e E   Q  e E Q  e E
||----------------|---------------|---------5---|----5------5----|
||o----5------5---|---------------|---------5---|----5------5----|
||-----5------5---|---------------|---------5---|----5------5----|
||-----5------5---|----2--2-0---0-|---------7---|----7------7----|
||o----3------3---|-----------3---|-0-------7---|----7------7----|
||----------------|---------------|-------------|----------------|


     C7              F7              D7     G7
  Q  e E Q  e E   Q  e E Q  e E   Q  e E Q  e E
|---------------|---------------|---------------||
|----5------5---|----4------4---|----3------6---||
|----3------3---|----2------2---|----5------4---||
|----5------5---|----3------3---|----4------5---||
|----3------3---|----3------3---|----5------5---||
|---------------|---------------|---------------||


 Chorus
                                                       To Coda
     C                            Am
  Q  e E Q  e E   Q  Q  E E e E   H.      e E   Q  e E Q  e E
|---------------|---------------|---------5---|----5------5------||
|----5------5---|---------------|---------5---|----5------5-----o||
|----5------5---|---------------|---------5---|----5------5------||
|----5------5---|----2--2-0---0-|---------7---|----7------7------||
|----3------3---|-----------3---|-0-------7---|----7------7-----o||
|---------------|---------------|-------------|------------------||


 Bridge
     C7              F7           C
  Q  e E Q  e E   Q  e E Q  e E   e E Q  e E Q
|---------------|---------------|---------------|
|----5------5---|----4------4---|-5------5------|
|----3------3---|----2------2---|-5------5------|
|----5------5---|----3------3---|-5------5------|
|----3------3---|----3------3---|-3------3------|
|---------------|---------------|---------------|


         G                      C
  e E Q  H      +W           Q  e E Q  e E
|--------3----|-(3)--------|---------------|
|-5------3----|-(3)--------|----5------5---|
|-5------4----|-(4)--------|----5------5---|
|-5------5----|-(5)--------|----5------5---|
|-3------5----|-(5)--------|----3------3---|
|-------------|------------|---------------|


                                 D.S. al Coda
  Am G  C           C            Am G  Am
  Q  Q  e E Q    Q  e E Q  e E   Q  Q  e E Q
|-5--3---------|---------------|-5--3--5------||
|-5--3--5------|----5------5---|-5--3--5------||
|-5--4--5------|----5------5---|-5--4--5------||
|-7--5--5------|----5------5---|-7--5--7------||
|-7--5--3------|----3------3---|-7--5--7------||
|--------------|---------------|--------------||


 Bridge
  &
     C7              F7           C                      G
  Q  e E Q  e E   Q  e E Q  e E   e E Q  e E Q    e E Q  H      +W
|---------------|---------------|---------------|--------3----|-(3)----||
|----5------5---|----4------4---|-5------5------|-5------3----|-(3)----||
|----3------3---|----2------2---|-5------5------|-5------4----|-(4)----||
|----5------5---|----3------3---|-5------5------|-5------5----|-(5)----||
|----3------3---|----3------3---|-3------3------|-3------5----|-(5)----||
|---------------|---------------|---------------|-------------|--------||


 Outro
     C                                    Am
  Q  e E Q  e E   Q  Q  E E e E   H.      e E
|---------------|---------------|---------5---|
|----5------5---|---------------|---------5---|
|----5------5---|---------------|---------5---|
|----5------5---|----2--2-0---0-|---------7---|
|----3------3---|-----------3---|-0-------7---|
|---------------|---------------|-------------|


                     C
  Q  e E Q  e E   Q  e E Q  e E   Q  e E Q  e E
|----5------5---|---------------|---------------*|
|----5------5---|----5------5---|----5------5---*|
|----5------5---|----5------5---|----5------5---*|
|----7------7---|----5------5---|----5------5---*|
|----7------7---|----3------3---|----3------3---*|
|---------------|---------------|---------------*|


Duration Legend
---------------
W - whole; H - half; Q - quarter; E - 8th; S - 16th; T - 32nd; X - 64th; a - acciaccatura
+ - note tied to previous; . - note dotted; .. - note double dotted
Uncapitalized letters represent notes that are staccato (1/2 duration)
Irregular groupings are notated above the duration line
Duration letters will always appear directly above the note/fret number it represents the
duration for.  Duration letters with no fret number below them represent rests.  Multi-
bar rests are notated in the form Wxn, where n is the number of bars to rest for.  Low
melody durations appear below the staff

Tablature Legend
----------------
 h   - hammer-on
 p   - pull-off
 b   - bend
 pb  - pre-bend
 r   - bend release (if no number after the r, then release immediately)
 /\  - slide into or out of (from/to "nowhere")
 s   - legato slide
 S   - shift slide
  - natural harmonic
[n]  - artificial harmonic
n(n) - tapped harmonic
 ~   - vibrato
 tr  - trill
 T   - tap
 TP  - trem. picking
 PM  - palm muting
\n/  - tremolo bar dip; n = amount to dip
 \n  - tremolo bar down
 n/  - tremolo bar up
/n\  - tremolo bar inverted dip
 =   - hold bend; also acts as connecting device for hammers/pulls
 <>  - volume swell (louder/softer)
 x   - on rhythm slash represents muted slash
 o   - on rhythm slash represents single note slash

Misc Legend
-----------
 |  - bar
||  - double bar
||o - repeat start
o|| - repeat end
*|  - double bar (ending)
 :  - bar (freetime)
 $  - Segno
 &  - Coda
Tempo markers -  = BPM(8/16=s8/s16), where s8 = swing 8ths, s16 = swing 16ths
Добавлено: 09.08.2015
Другие материалы по этой песне:

Страница создана 08.11.2014
http://primanota.ru/smokey-robinson-and-miracles/youve-really-got-a-hold-on-me-chords.htm
Привет, Гость.
Предлагаем пройти революционный курс по гитаре.
Подарок от PrimaNota.Ru, забирай!