PrimaNota.ru - самый крупный в мире бесплатный архив песенных текстов, аккордов, табулатур и нот


Smokey Robinson And The Miracles - Going To A Go Go - бас-таба, видео

Регистрация Запомнить меня
Войти через:  Facebook Google Twitter Vk Yandex Mail.ru

Smokey Robinson And The Miracles - Going To A Go Go - бас-таба, видео

Печатать
Просмотров: 87
Уроки эстрадного вокала в Санкт-Петербурге
Going To A Go-Go
This is how it all started for The Miracles. Recorded in late 1965
Charted February 1966 in UK Top 50.
Bass performance James Jamerson. Tab by bass50611. I have tab 5 Main
Riff Variations that can be alternated or mix and match if desired.
Comments at bass254@btinternet.com

             MAIN RIFF THROUGHOUT THE SONG
G|-------|-----3------------------------3---------------|
D|-DRUM--|--3-5-5-3-5----------------3-5-5-3-5----------|
A|-START-|-5-------------2-3-5------5------------2-3-5--|
E|-------|--------------3-----3-----------------3-----3-|

1st Main Riff Variation:
G|-----3-----------------|
D|--3-5-5-3-5------------|
A|-5--------------2-2-5--|
E|---------------3-----3-|

2nd Main Riff Variation:
G|-----3-----------------|
D|--3-5-5-3-5------------|
A|-5--------------3-4-5--|
E|---------------3-----3-|

3rd Main Riff Variation:
G|-----3-----------------|
D|--3-5-5-3-5------------|
A|-5--------------3-3-5--|
E|---------------3-----3-|

4th Main Riff Variation:
G|-----3-----------------|
D|--3-5-5-3-5------------|
A|-5--------------2-4-5--|
E|---------------3-----3-|

5th Main Riff Variation:
G|-----3----------------|
D|--3-5-5-3-5-----------|
A|-5--------------2345--|
E|---------------3----3-|

Bridge:
G|--------------------------|
D|-5---3--------------------|
A|---------3----------3-----|
E|-------------3----3-----3-|

And That Is It. The Song Just Goes Round And Round The Main Riff With Bridge Repeats
Добавлено: 24.11.2015
Другие материалы по этой песне:
  • Аккорды и текст

Страница создана 24.11.2015
http://primanota.ru/smokey-robinson-and-miracles/going-to-a-go-go-chords.htm
Привет, Гость.
Предлагаем пройти революционный курс по гитаре.
Подарок от PrimaNota.Ru, забирай!