PrimaNota.ru - самый крупный в мире бесплатный архив песенных текстов, аккордов, табулатур и нот


Smoke Or Fire - Filter - таба, видео

Регистрация Запомнить меня
Войти через:  Facebook Google Twitter Vk Yandex Mail.ru

Smoke Or Fire - Filter - таба, видео

Печатать
Просмотров: 129
Filter by Smoke or Fire
  This is an awesome band, and there's just not enough tabs for them, so I decided to
one for one of my favorite songs. I hope this helps, it should be pretty accurate. I only
one guitar, but thats really all you need. Anyways, j-browning@sbcglobal.net for any
suggestions/corrections/etc.
This is my first tab, let me know how terrible/not-so-bad it is, thanks.


x=muted
~=let it ring

    Intro x4
e-----------------------------------------------|
b-----------------------------------------------|
g--7777777--12121212/11111111--444444-----------|
d--xxxxxxx---x-x-x-x/-x-x-x-x--444444-777777----|
a--5555555--10101010/-9-9-9-9--222222-777777----|
e-------------------------------------555555----|

    Verse x2 (While you sleep...) Palm muted verse x2 (When you wake...)
e-----------------------I-------------------------------------|I
b-----------------------I-------------------------------------|I
g----4x-----------------I-----444-----------------------------|I
d--7x4x5~---4x5x7~------I--77744455555555--4445557777777------|I
a--7x2x5~---4x5x7~------I--77722255555555--4445557777777------|I
e--5x--3~---2x3x5~------I--555---33333333--2223335555555------|I
                 palm mute ..............  .............

   Chorus x4
e---------------------------------------------|
b---------------------------------------------|
g--7777777--12121212/11111111--444444---------|
d--7777777---x-x-x-x/-x-x-x-x--444444-777777--|
a--5555555--10101010/-9-9-9-9--222222-777777--|
e-------------------------------------555555--|

    Bridge?? x4 (We'll smoke this city to the filter...)
e--------------------------------|
b--------------------------------|
g--------------44444444444444----|
d--5555557777774444444444444444--|
a--5555557777772222222222222244--|
e--333333555555--------------22--|
               ^on the fourth time stop here

    Second Bridge x4 (Buuuuuuuuuuuurn their lives...)
e---------------------------------|
b---------------------------------|
g--77777777777777774444444--------|
d--77777777777777774444444777777--|
a--55555555555555552222222777777--|
e-------------------------555555--|

   Outro x1
e------------------------|
b------------------------|
g----4~------------------|
d--7~4~5~----4~5~7~------|
a--7~2~5~----4~5~7~------|
e--5~--3~----2~3~5~------|

there you have it...ill tab some more of their songs when i get around to it
Добавлено: 15.05.2012
Другие материалы по этой песне:
  • Аккорды и текст

Страница создана 15.05.2012
http://primanota.ru/smoke-or-fire/filter-chords.htm
Привет, Гость.
Предлагаем пройти революционный курс по гитаре.
Подарок от PrimaNota.Ru, забирай!